Third Day

home > Third Day

Medley Tab

Third Day

Difficulty: AdvancedAdvanced

by isaacindep

tuner correct add songbook print version text version save to e-mail
chordsukulelecavacokeyboardtabbassdrumsharmonicsflute Guitar Pro
chords

Medley

Key:  D More
Medley Key AA
Medley Key A#A#
Medley Key BB
Medley Key CC(one step down)
Medley Key C#C#(half step down)
Medley Key DD(original key)
Medley Key D#D#(half step up)
Medley Key EE(one step up)
Medley Key FF
Medley Key F#F#
Medley Key GG
Medley Key G#G#
  		Solo 1  
 
E|-------------------------| 
B|-7---6^7-8-7-------------| 
G|---4-------4-------------| 
D|-------------------------| 
A|-------------------------| 
E|-------------------------| 
 
 
Solo 2  
 
E|-10-10-9-10---------------------------| 
B|------------10-10-9-10-9-10^12-12-----| 
G|----------------------------------12--| 
D|--------------------------------------| 
A|--------------------------------------| 
E|--------------------------------------| 
 
					   5x   5x 
E|-10-10-9-10-9-10-10^12-12-10-12-10-12^14-14--14^15---| 
B|-----------------------------------------------------| 
G|-----------------------------------------------------| 
D|-----------------------------------------------------| 
A|-----------------------------------------------------| 
E|-----------------------------------------------------| 
 
 
Solo 3 
 
E|----10-12-15-12-10----10--|----10-12-15--12-15-19--------------| 
B|-12----------------12-----|-12---------------------------------| 
G|--------------------------|------------------------------------| 
D|--------------------------|------------------------------------| 
A|--------------------------|------------------------------------| 
E|--------------------------|------------------------------------| 
	  

Search Paypal
auto scroll beats size up size down change color hide chords drawings
tab show chords e-chords YouTube Clip e-chords hide all tabs e-chords go to top tab