The Shins

home > The Shins

Pink Bullets Tab

The Shins

Difficulty: BeginnerBeginner

by gabriel101

tuner correct add songbook print version text version save to e-mail
chordsukulelecavacokeyboardtabbassdrumsharmonicsflute Guitar Pro
chords

Pink Bullets

  		Standard Tuning 
 
  
Verse (Acoustic Strumming) 
     Em   D    A 
E||--0----2----0----| 
B||--0----3----2----| 
G||--0----2----2----| 
D||--2----0----2----| 
A||--2---------0----| 
E||--0--------------| 
  
  
  
Verse (Electric Clean)	My best guess: 
     Em 		  A	 D					   
E||--7-------5--|---------2------2--------| 
B||-----5s3-----|--3s2s3----3-0----3s5----| 
G||-------------|-------------------------| 
D||-------------|-------------------------| 
A||-------------|-------------------------| 
E||-------------|-------------------------| 
  
  
  
Chorus (Acoustic, picking here and there) 
     G	  D		 F    C 
E||--3----2----|       |-1----0----|				       
B||--3----3----|       |-1----1----|				   
G||--0----2----| (x3)  |-2----0----|					 
D||--0----0----|       |-3----2----|  
A||--2---------|       |-3----3----|					 
E||--3---------|       |-1---------|	    
  
(x1 first & second Chorus, x3 last Chorus) 
  
  
 
Chorus ends with:     
     D Dsus4	  
E||--2^-3--2h3p2p0-| 
B||--3--3--3-------| 
G||--2--2--2-------| 
D||--0--0--0-------| 
A||----------------| 
E||----------------| 
  
  
  
Interlude (2:12)  
     G	      C 	     D		       
E||------------------0----|-----------2h3p2p0--| 
B||--------------1h3------|--------3-----------| 
G||-----------------------|-----2--------------| 
D||-----0--0--2-----------|--0-----------------| 
A||-----0--2--3-----------|--------------------| 
E||--3--------------------|--------------------| 
  
  F									    
  
|-----1--------|--------3---| 
|-------1------|--------3---| 
|---------2----|------------|  (x 2) 
|--------------|------------|  
|-3------------|----2-------| 
|-1------------|--3---------| 
  
Third repetition of interlude: 
     G	      C 	    D		       
E||------------------0----|-----------2h3p2p0--| 
B||--------------1h3------|--------3-----------| 
G||-----------------------|-----2--------------| 
D||-----0--0--2-----------|--0-----------------| 
A||-----0--2--3-----------|--------------------| 
E||--3--------------------|--------------------| 
  
   G			  C  
|--3-------------------|---------0----0---|--2--3^2h3p3p0-| 
|--3-------------------|----1h3-------1---|--3--3---------| 
|--0-------------------|--------------0---|--2--2---------| 
|--0---------0----0----|--2-----------2---|--0--0---------| 
|--2----2----0----2----|--3-----------3---|---------------| 
|--3----3--------------|------------------|---------------| 
  
  
  
Last Chorus ends with: 
    Dsus2 
E||--0h2--| 
B||--3----| 
G||--2----| 
D||--0----| 
A||-------| 
E||-------| 
 

	  

Full key step upFull key step up
Half key step upHalf key step up
Half key step downHalf key step down
Full key step downFull key step down
Search Paypal
auto scroll beats size up size down change color hide chords drawings
tab show chords e-chords YouTube Clip e-chords hide all tabs e-chords go to top tab