The Rembrandts

I'll be there

The Rembrandts

tabs

by  HAMSTER.MAN

save to print version add songbook text version e-mail correct tuner
chordsukulelecavacokeyboardtabbassdrumsharmonicaflute Guitar Pro
close

there isn't a video lesson for this song

chords

I'll be there

	  		/=Slide 
~=Hold on 
Intro: 
e-------------------------------------------------------- 
b-------------------------------------------------------- 
g----4/6--4/6--2--0--0--2--4--2~~~----------------------- (x2) 
d-------------------------------------------------------- 
a-0------------------------------------------------------ 
e-------------------------------------------------------- 
Verse 
e-------------------------------------------------------- 
b----------3--2--0--------------0--0--------------------- 
g-------2-----------2--2-----2--------------------------- 
d----2--------------------3------------------------------ 
a-0------------------------------------------------------ 
e-------------------------------------------------------- 
 
e---------------------------------0---------------------- 
b----------3--2-------3--2--0---------------------------- 
g-------2--------2-------------2------------------------- 
d----2--------------------------------------------------- 
a-0------------------------------------------------------ 
e-------------------------------------------------------- 
Pre-Chorus: 
e--------------------------------------------------------- 
b-3--3--3--3--3--3--3--1--0------------------------------- 
g--------------------------------------------------------- 
d--------------------------------------------------------- 
a--------------------------------------------------------- 
e--------------------------------------------------------- 
 
e--------------------------------------------------------- 
b-2--2--2--2--2--2--2--1--0-------------0--0-------------- 
g----------------------------2--2----2--------2--2-------- 
d---------------------------------2----------------------- 
a--------------------------------------------------------- 
e--------------------------------------------------------- 
Chorus: 
e--------------------------------------------------------- 
b-5--5--5--7--5------------------------------------------- 
g----------------4--4--6--7--6--2--2---------------------- 
d--------------------------------------------------------- 
a--------------------------------------------------------- 
e--------------------------------------------------------- 
Outro: 
e-------------------------------------------------------- 
b-------------------------------------------------------- 
g----4/6--4/6--2--0--0--2--4--2~~~~~~~~~~~~~~~~~~~~~~~~~~ 
d-------------------------------------------------------- 
a-0------------------------------------------------------ 
e-------------------------------------------------------- 

		  

auto scroll beats size up size down change color hide chords drawings
tab show chords e-chords YouTube Clip e-chords hide all tabs e-chords go to top tab

share