save to print version add songbook text version e-mail correct tuner
chordsukulelecavacokeyboardtabbassdrumsharmonicaflute Guitar Pro
close

there isn't a video lesson for this song

chords

Buoy

	  		

INTRO - clean with delay 
e|---------------------------------------------------------------------------| 
B|9(x12)-11(x4)-12(x12)-10(x4)-----------------------------------------------| 
G|---------------------------------------------------------------------------| 
D|---------------------------------------------------------------------------| 
A|---------------------------------------------------------------------------| 
E|---------------------------------------------------------------------------| 

e|---------------------12----10--10------------------------------------------| 
B|9(x12)-11(x4)-12(x12)--------12---12--9------------------------------------| 
G|---------------------------------------------------------------------------| 
D|---------------------------------------------------------------------------| 
A|---------------------------------------------------------------------------| 
E|---------------------------------------------------------------------------| 

e|---------------------------------------------------------------------------| 
B|9(x12)-11(x4)-12(x12)-10(x4)-----------------------------------------------| 
G|---------------------------------------------------------------------------| 
D|---------------------------------------------------------------------------| 
A|---------------------------------------------------------------------------| 
E|---------------------------------------------------------------------------| 

verse 1 
e|---------------------------------------------------------------------------| 
B|---------------------------------------------------------------------------| 
G|---------------------------------------------------------------------------| x2 
D|---------------------------------------------------------------------------| 
A|---------------------------------------------------------------------------| 
E|0-0-0-0-2-0-0-0/7-7-7-7-4-4-4-4-0-0-0-0-2-0-0-0/9-9-9-9-4-4-4-4------------| 

INTRO THING AGAIN but more intense 
e|---------------------------------------------------------------------------| 
B|---------------------------------------------------------------------------| 
G|---------------------------------------------------------------------------| x2 
D|2------4-----5------2------------------------------------------------------| 
A|2(x12)-4(x4)-5(x12)-2(x4)--------------------------------------------------| 
E|0------2-----3------1------------------------------------------------------| 
Also what I think is a synth plays the intro over this as well 

verse 1 again  

Chorus 
e|---------------------------------------------------------------------------| 
B|---------------------------------------------------------------------------| 
G|---------------------------------------------------------------------------| 
D|2-2-2-2-4-2-2-2/9-9-9-9-6-6-6-6-2-2-2-2-4-2-2-2/11-11-11-11-6-6-6-6--------| 
A|2-2-2-2-4-2-2-2/9-9-9-9-6-6-6-6-2-2-2-2-4-2-2-2/11-11-11-11-6-6-6-6--------| 
E|0-0-0-0-2-0-0-0/7-7-7-7-4-4-4-4-0-0-0-0-2-0-0-0/9--9--9--9--4-4-4-4--------| 

e|---------------------------------------------------------------------------| 
B|---------------------------------------------------------------------------| 
G|---------------------------------------------------------------------------| 
D|2-2-2-2-4-2-2-2/9-9-9-9-6-6-6-6-2-2-2-2-4-2-2-2/11-11-11-11-13-13-13-13----| 
A|2-2-2-2-4-2-2-2/9-9-9-9-6-6-6-6-2-2-2-2-4-2-2-2/11-11-11-11-13-13-13-13----| 
E|0-0-0-0-2-0-0-0/7-7-7-7-4-4-4-4-0-0-0-0-2-0-0-0/9--9--9--9--11-11-11-11----| 

POST-Chorus 

e|---------------------------------------------------------------------------| 
B|---------------------------------------------------------------------------| 
G|---------------------------------------------------------------------------| x2 
D|2-2-2-2-4-2-2-2/9-9-9-9-6-6-6-6--------------------------------------------| 
A|2-2-2-2-4-2-2-2/9-9-9-9-6-6-6-6--------------------------------------------| 
E|0-0-0-0-2-0-0-0/7-7-7-7-4-4-4 4--------------------------------------------| 

Nothing for a verse, then 
Chorus again, followed by Bridge (instead of post-Chorus) 

BRIDGE 
e|-----------------------------------------------------------------------------| 
B|-----------------------------------------------------------------------------| 
G|-----------------------------------------------------------------------------| 
D|4-----9-----6-6-7-7--2-----9-----6-----4-----9-----6-6-7-7-2------2/14-14----| 
A|4(x8)-9(x4)-6-6-7-7--2(x8)-9(x4)-6(x4)-4(x8)-9(x4)-6-6-7-7-2(x11)-2/14-14(x3)| 
E|2-----7-----4-4-5-5--0-----7-----4-----2-----7-----4-4-5-5-0------0/12-12----| 

Intro (x2) 

"Intro thing" (x8) 

Post-Chorus  (x8) I like to do full barre chords here instead of power chords but I dunno if that's correct 
End 
		  

See also:

tabs Jake Bugg - What Doesn't Kill You tabs Arctic Monkeys - Do I Wanna Know? tabs Oasis - Where Did It All Go Wrong tabs Bush - Everything zen tabs Oasis - DonīT Go Away tabs Oasis - Hey Hey My My (Into The Black)
e-chords

Other versions:

tabs The Joy Formidable - Buoy
auto scroll beats size up size down change color hide chords drawings
tab show chords e-chords YouTube Clip e-chords hide all tabs e-chords go to top tab

share