The Clouds

Wave

The Clouds

tabs Intermediate intermediate

save to print version add songbook text version e-mail correct tuner
chordsukulelecavacokeyboardtabbassdrumsharmonicaflute Guitar Pro
close

there isn't a video lesson for this song

chords

Wave

	  		Tabbed by David Marchetti 
	  {[email protected]} 
Intro. 
-------0--------0---------0---------0---------0--------0---------0---------0 
0-h-4----4-h-5----5-sl-7----7-sl-9-----0-h-4----4-h-5----5-sl-7----7-sl-9--- 
---------------------------------------------------------------------------- 
---------------------------------------------------------------------------- 
---------------------------------------------------------------------------- 
---------------------------------------------------------------------------- 
 
--------0----------0----------0--------0-------0--------0--------0--------0- 
9-h-10----10-po-9----10-sl-7---7-sl-5---4-h-5----4-h-5----0-h-4----4-h-5---- 
---------------------------------------------------------------------------- 
---------------------------------------------------------------------------- 
---------------------------------------------------------------------------- 
---------------------------------------------------------------------------- 
 
Bass Line 
----|----------------------------------------------------------------------- 
----|----------------------------------------------------------------------- 
----|----------------------------------------------------------------------- 
----|------------------repeat this bit during verse------------------------- 
----|-4--2--2--------------------------------------------------------------- 
(5)-|---------2--5--5------------------------------------------------------- 
 
Chords come in... 
---------------|------------------------------------------------------------- 
---------------|------------------------------------------------------------- 
---------------|-----6---4-4------------------------------------------------- 
-(4)-(4)---(6)-|-7---6---4-4---4---7-7------repeat this bit during verse----- 
-(4)-(4)---(6)-|-7---4---2-2---4---7-7--------------------------------------- 
-(2)-(2)---(4)-|-5-------------2---5-5--------------------------------------- 
 
Chorus 
----------------------------------------------------------------------------- 
----------------------------------------------------------------------------- 
-------------------------9-------{*A*}--------------------------------------- 
--5---7---9---11---7-7---9---9-9--7--------repeat a few times---------------- 
--5---7---9---11---7-7---7---9-9--7--------listen to recording to get exact-- 
--7---5---7---9----5-5-------7-7--5------------------------------------------ 
					 
Second chorus breaks into the bridge using the last chord of the Chorus  
chord progression {*A*} as the joining chord 
 
Bridge   {.......me..........salty waters......} 
-------------------|--------------------------------------------------------- 
-------------------|--------------------------------------------------------- 
{*A*}-palm mute----|--------------------------------------------------------- 
(7)-x-x-x-x-x-x-x--|--11--11--11--11--11--11--11-----12--12--12-----9--9--9-- 
(7)-x-x-x-x-x-x-x--|--11--11--11--11--11--11--11-----12--12--12-----9--9--9-- 
(5)-x-x-x-x-x-x-x--|--9---9---9---9---9---9---9------10--10--10-----7--7--7-- 
 
Intro & Bassline  		 X  1 
Bass Line	  		 X  8		on 5 chords come in 
Chorus		  		 X  4 
1st line of Intro & bassline	 X  1 
Bass Line	  		 X  8		on 5 chords come in 
Chorus				 X  5		on last chord of 5th run break 
						into Bridge 
Bridge				 X  4 
Muted verse chords and bass line X  4 
Bass Line		    	 X  8		on 5 chords come in 
Chorus				 X 11		end on B Chord (7th Fret) 
 
 
 

		  

Full key step upFull key step up
Half key step upHalf key step up
Half key step downHalf key step down
Full key step downFull key step down
hide glossary

See also:

tabs John Butler Trio - Attitude tabs The Dissociatives - Horror With Eyeballs tabs Wolfmother - Woman tabs Pete Murray - Tonic tabs Virgin Black - Our Wings Are Burning tabs Russell Morris - On The Wings Of An Eagle
e-chords

Other versions:

tabs The Clouds - Wave tabs Tom Jobim - Wave tabs Tom Jobim - Wave (ver. 4) tabs Ty Segall Band - Wave Goodbye tabs Megaman - Wave Man tabs Three Days Grace - Wave Of Popular Feeling
auto scroll beats size up size down change color hide chords drawings
tab show chords e-chords YouTube Clip e-chords hide all tabs e-chords go to top tab

share