The Clouds

Say It

The Clouds

tabs

save to print version add songbook text version e-mail correct tuner
chordsukulelecavacokeyboardtabbassdrumsharmonicaflute Guitar Pro
close

there isn't a video lesson for this song

chords

Say It

	  		Transcribed by Paul Stipack ([email protected]) with help 
from anonymous. 
 
 
I'm going from memory on this tab, so there may be a couple mistakes. 
I loved playing this song a few years back. Anyway, enjoy. 
 
INTRO: 
E-|-------------------------------|- 
B-|-------------------------------|- 
G-|---5-5-----6-6-----1-1-----6-6-|- 
D-|---6-6-----7-7-----2-2-----7-7-|- 
A-|---6-6-----7-7-----2-2-----7-7-|- 
E-|-x-4-4---x-5-5---x-0-0---x-5-5-|- 
 
E-|-------------------------------|- 
B-|-------------------------------|- 
G-|---5-5-----6-6-----1-1-----3-3-|- 
D-|---6-6-----7-7-----2-2-----4-4-|- 
A-|---6-6-----7-7-----2-2-----4-4-|- 
E-|-x-4-4---x-5-5---x-0-0---x-2-2-|- 
 
E-|-------------------------------|- 
B-|-------------------------------|- 
G-|---5-5-----6-6-----1-1-----6-6-|- 
D-|---6-6-----7-7-----2-2-----7-7-|- 
A-|---6-6-----7-7-----2-2-----7-7-|- 
E-|-x-4-4---x-5-5---x-0-0---x-5-5-|- 
 
E-|---------------------------|- 
B-|---------------------------|- 
G-|---5-5-----6-6---1-1-1-1-1-|- 
D-|---6-6-----7-7---2-2-2-2-2-|- 
A-|---6-6-----7-7---2-2-2-2-2-|- 
E-|-x-4-4---x-5-5---0-0-0-0-0-|- 
 
VERSE:play the same as intro but palm mute strings. 
 
PRE CHORUS: 
    F#       A         G        C         Ab       A 
E-|------------------|------------------|------------------|- 
B-|------------------|------------------|------------------|- 
G-|-3-3-3-3--6-6-6-6-|-4-4-4-4--5-5-5-5-|-5-5-5-5--6-6-6-6-|- 
D-|-4-4-4-4--7-7-7-7-|-5-5-5-5--5-5-5-5-|-6-6-6-6--7-7-7-7-|- 
A-|-4-4-4-4--7-7-7-7-|-5-5-5-5--3-3-3-3-|-6-6-6-6--7-7-7-7-|- 
E-|-2-2-2-2--5-5-5-5-|-3-3-3-3----------|-4-4-4-4--5-5-5-5-|- 
 
CHORUS: 
E-|-------------------------------|- 
B-|-------------------------------|- 
G-|---1-1-----6-6-----5-5-----6-6-|- 
D-|---2-2-----7-7-----6-6-----7-7-|- 
A-|---2-2-----7-7-----6-6-----7-7-|- 
E-|-x-0-0---x-5-5---x-4-4---x-5-5-|- 
 
CHORUS 2: 
 
E-|---------------------------------------------------------------|- 
B-|---------------------------------------------------------------|- 
G-|---1-1-----6-6-----8-8-----6-6-----1-1-----6-6-----6-6-----8-8-|- 
D-|---2-2-----7-7-----9-9-----7-7-----2-2-----7-7-----5-5-----9-9-|- 
A-|---2-2-----7-7-----9-9-----7-7-----2-2-----7-7-----5-5-----9-9-|- 
E-|-x-0-0---x-5-5---x-7-7---x-5-5---x-0-0---x-5-5---x-3-3---x-7-7-|- 
 
 
 

		  

Full key step upFull key step up
Half key step upHalf key step up
Half key step downHalf key step down
Full key step downFull key step down
hide glossary

See also:

tabs John Butler Trio - Attitude tabs The Dissociatives - Horror With Eyeballs tabs Wolfmother - Woman tabs Pete Murray - Tonic tabs Virgin Black - Our Wings Are Burning tabs Russell Morris - On The Wings Of An Eagle
e-chords

Other versions:

tabs The Clouds - Say It tabs Jerk - Say It tabs Tory Lanez - Say It tabs Deftones - Say It Ain't So tabs Weezer - Say It Aint So tabs Weezer - Say It Aint So (ver. 2)
auto scroll beats size up size down change color hide chords drawings
tab show chords e-chords YouTube Clip e-chords hide all tabs e-chords go to top tab

share