The 1975

home > The 1975

Somebody Else Tab

The 1975

Difficulty: nolevelnolevel

by renejunior

tuner correct add songbook print version text version save to e-mail
chordsukulelecavacokeyboardtabbassdrumsharmonicsflute Guitar Pro
chords

Somebody Else

  		
Adam Hann's solo, tabbed from live performance at Guild of Students, Liverpool, 9/11/2015 

e|---------------------------------------------------------------------------| 
B|-15b17r15-------15-15-----------15b17r15-------15-15-----------------------| 
G|----------14-17--------------------------14-17-----------------------------| 
D|---------------------------------------------------------------------------| 
A|---------------------------------------------------------------------------| 
E|---------------------------------------------------------------------------| 

e|---------------------------------------------------------------------------| 
B|-15b17r15-------15-15-----------15b17r15-------15--------------------------| 
G|----------14-17--------------------------14-17----16-14--------------------| 
D|---------------------------------------------------------------------------| 
A|---------------------------------------------------------------------------| 
E|---------------------------------------------------------------------------| 

e|---------------------------------------------------------------------------| 
B|-15b17r15-------------15-15-----15b17r15-------15-15-----------------------| 
G|----------16p14----17--------------------14-17-----------------------------| 
D|----------------17---------------------------------------------------------| 
A|---------------------------------------------------------------------------| 
E|---------------------------------------------------------------------------| 

e|---------------------------------------------------------------------------| 
B|-15b17r15-------15-15-----------17-18-17-15----15--------------------------| 
G|----------14-17-----------------------------17----17-----------------------| 
D|---------------------------------------------------------------------------| 
A|---------------------------------------------------------------------------| 
E|---------------------------------------------------------------------------| 

************************************ 

| b   Bend 
| r   Release 

************************************ 
	  

Search Paypal
auto scroll beats size up size down change color hide chords drawings
tab show chords e-chords YouTube Clip e-chords hide all tabs e-chords go to top tab