Tété

La Pudeur

Tété

tabs nolevel nolevel

by  BRUNBLAZKOWSKI

save to print version add songbook text version e-mail correct tuner
chordsukulelecavacokeyboardtabbassdrumsharmonicaflute Guitar Pro
close

there isn't a video lesson for this song

chords

La Pudeur

	  		Accords : G#     - 466544 
          Asus4  - 446644 
		Cm     - 335543 
		A#m    - 688666  

Intro (A jouer 2x) 
E|-----------------------------------------| 
B|-----------------------------------------| 
G|-----0-1--3--1-0--1------1---------------| 
D|---1------1-------1--1/3---1-1-0---------| 
A|---------------------------------4-3-4-1-| 
E|-4---------------------------------------| 

Couplet 1 
E|---------------------------------------------| 
B|-----4---4-----4---4-----4---4--------4---4--| 
G|---------------6-6-------0-0----------0-0----| 
D|-----6-6-------------------------------------| 
A|-----------6-6-------3-3-------3/4--4--------| 
E|-4-4-----------------------------------------| 

       A quoi bon jouer la comédie comme on dit 
E|----------------------------------------------| 
B|-----4---4-----4---4--------4---4-------------| 
G|-----6-6-------0-0----------0-0---------------| 
D|--------------------------------------6---6---| 
A|-6-6-------3-3-------3/4--4-----------6-6-----| 
E|----------------------------------4-4---------| 

       Une goutte de pluie et c'est fini un coup de vent et tout fou le camps  
E|---------------------------------------------| 
B|-----4---4-----4---4-----4---4--------4---4--| 
G|---------------6-6-------0-0----------0-0----| 
D|-----6-6-------------------------------------| 
A|-----------6-6-------3-3-------3/4--4--------| 
E|-4-4-----------------------------------------| 

       C'est dit du reste dans ton allure et tes gestes 
E|----------------------------------------------| 
B|-----4---4-----4---4--------4---4-------------| 
G|-----6-6-------0-0----------0-0---------------| 
D|--------------------------------------6---6---| 
A|-6-6-------3-3-------3/4--4-----------6-6-----| 
E|----------------------------------4-4---------| 

       Tes silences en attestent c'est 
		  

Full key step upFull key step up
Half key step upHalf key step up
Half key step downHalf key step down
Full key step downFull key step down
hide glossary

See also:

tabs Tété - Le Meilleur Des Mondes tabs Tété - La Relance tabs Tété - Le Sacre Des Lemmings (interlude) tabs Soko - Sweet Sound Of Ignorance tabs Lara Fabian - Love By Grace tabs Tété - Le Magicien
e-chords

Other versions:

tabs Tété - La Pudeur
auto scroll beats size up size down change color hide chords drawings
tab show chords e-chords YouTube Clip e-chords hide all tabs e-chords go to top tab

share with facebook