Tété

Honni Soit

Tété

tabs nolevel nolevel

by  BRUNBLAZKOWSKI

save to print version add songbook text version e-mail correct tuner
chordsukulelecavacokeyboardtabbassdrumsharmonicaflute Guitar Pro
close

there isn't a video lesson for this song

chords

Honni Soit

	  		
Intro                                                                                Le  
      G                       Bm                             G                       Bm 
e-|---3------------------------2---2---2---2---|--------||---3------------------------2-| 
B-|---3------------------------3---3---3---3---|--------||---3------------------------3-| 
G-|---4------------------------4---4---4---4---|--------||---4------------------------4-| 
D-|---5------5-----5--5--4-----4---4---4---4---|- X 3 --||---5------5-----5--5--4-----4-| 
A-|---5---5-----5-----------5--2---2---2---2---|--------||---5---5-----5-----------5--2-| 
E-|---3----------------------------------------|--------||---3--------------------------| 

plus génant dans la mise au ban Plus encore que le manque d'argent                Ce qui  
                            Am                                 G 
e-|--------------------------0----------------------------------3-----------------2-----| 
B-|--------------------------1----------------------------------3-----------------3-----| 
G-|--------------------------2----------------------------------4-----------------4-----| 
D-|--------------------------2----------------------------------5-----5---5-5-4---4-----| 
A-|--------------------------0----------------------------------5---5---5-------5-2-----| 
E-|-------------------------------------------------------------3-----------------------| 
  
finalement fait le plus défaut   C'n'est ni la maison ni l'auto                  La péni- 
                             Am                              G 
		  

Full key step upFull key step up
Half key step upHalf key step up
Half key step downHalf key step down
Full key step downFull key step down
hide glossary

See also:

tabs Tété - Le Meilleur Des Mondes tabs Tété - La Relance tabs Tété - Le Sacre Des Lemmings (interlude) tabs Soko - Sweet Sound Of Ignorance tabs Lara Fabian - Love By Grace tabs Tété - Le Magicien
e-chords

Other versions:

tabs Tété - Honni Soit
auto scroll beats size up size down change color hide chords drawings
tab show chords e-chords YouTube Clip e-chords hide all tabs e-chords go to top tab

share with facebook