Tété

Emma Stanton

Tété

tabs Beginner beginner

by  BRUNBLAZKOWSKI

save to print version add songbook text version e-mail correct tuner
chordsukulelecavacokeyboardtabbassdrumsharmonicaflute Guitar Pro
close

there isn't a video lesson for this song

chords

Emma Stanton

	  		Pudique.       
Emma Stenton cache ses dents, d'un timide revers 


          F#m       C#m                                                  
|-------2---------4----|-------2---------4----|-------2---------4---| 
|-------2---------5----|-------2---------5----|-------2---------5---| 
|-------2---------6----|-------2---------6----|-------2---------6---| 
|-------4---------6----|-------4---------6----|-------4---------6---| 
|-------4----4---------|-------4----4---------|-------4----4--------| 
|--2-------------------|--2-------------------|--2------------------| 
de manche, ses rares sourires n'en sont du coup que plus touchants 
  
                              D#        G#                        
-------2---------4----|-------6---------4----|------------------| 
-------2---------5----|-------8---------4----|------------------| 
-------2---------6----|-------8---------5----|------------------| 
-------4---------6----|-------8---------6----|------------------| 
-------4----4---------|--6--------------6----|------------------| 
--2-------------------|------------4---------|------------------| 
Etc...               Sublime            Sublime 


                     C#m                 G#                       
------------------|--4----------------|--4----------------|| 
---4-5-4----------|--5----------------|--4----------------|| 
-6-------6--------|--6----------------|--5----------------|| 
------------------|--6----------------|--6----------------|| 
----------------4-|--4----------------|--6----------------|| 
------------5-4---|-------------------|--4----------------|| 


Paroles: 

Pudique 
Emma Stanton cache ses dents 
D'un timide revers de manche 
Ses rares sourires n'en sont du coup 
Que plus touchants 

Pudique 
Emma détourne le regard 
Les yeux en disent bien trop 
Plus qu'il n'en faut 
Et puis les siens s'raient un 
		  

Full key step upFull key step up
Half key step upHalf key step up
Half key step downHalf key step down
Full key step downFull key step down
hide glossary

See also:

tabs Tété - Le Meilleur Des Mondes tabs Tété - La Relance tabs Tété - Le Sacre Des Lemmings (interlude) tabs Soko - Sweet Sound Of Ignorance tabs Lara Fabian - Love By Grace tabs Tété - Le Magicien
e-chords

Other versions:

tabs Tété - Emma Stanton
auto scroll beats size up size down change color hide chords drawings
tab show chords e-chords YouTube Clip e-chords hide all tabs e-chords go to top tab

share with facebook