Testeagles

Hammerdrill

Testeagles

tabs

save to print version add songbook text version e-mail correct tuner
chordsukulelecavacokeyboardtabbassdrumsharmonicaflute Guitar Pro
close

there isn't a video lesson for this song

chords

Hammerdrill

	  		*Tuning* 
Drop D (DADGBE) 
*Notes* 
Timing may not be exact, so just figure it out for yourself, its better that way. 
*Key* 
P.M. = Palm Mute 
X = Muted String 
* = Harmonics 
/ = Slide 
Intro"Ahhhh"Riff A 
E|------------------------------------------------------| 
B|------------------------------------------------------| 
G|------------------------------------------------------| 
D|------------------------------------------------------| 
A|-------6-----------6-----------6-----------6----------| 
D|-0-0-0-------0-0-0-------0-0-0-------0-0-0------------| 
 
E|---------------------------------------------------------------------| 
B|---------------------------------------------------------------------| 
G|---------------------------------------------------------------------| 
D|---------------------------------------------------------------------| 
A|-------6-----------6-----------6-----------6--------6---9---5--------| 
D|-0-0-0-------0-0-0-------0-0-0-------0-0-0----0-0-0------------------|Riff B 
 
E|--------------------------------------| 
B|--------------------------------------| 
G|--------------------------------------| 
D|--------------------------------------| 
A|-------6-6-------6-6--9--5------------| 
D|-0-0-0-----0-0-0----------------------|"EWAHHHHHHH" 
 
E|--------------------------------------------------------------------------------------| 
B|--------------------------------------------------------------------------------------| 
G|--------------------------------------------------------------------------------------| 
D|--------------------------------------------------------------------------------------| 
A|-------6-6-------6-6--9--5---------6-6-------6-6--9--5-----------6-6-------6-6--9--5--| 
D|-0-0-0-----0-0-0-------------0-0-0-----0-0-0---------------0-0-0-----0-0-0------------| 
 
"RUH"Repeat Riff B again and finish on 
Riff C 
E|-----------------------------| 
B|-----------------------------| 
G|-----------------------------| 
D|-----------------------------| 
A|-------6--------6---9---5----| 
D|-0-0-0----0-0-0--------------| 
Verse"What the ***...."Riff C (Play 8 times) 
Chorus"Oh no...."Repeat Twice 
E|--------------------------------------------------------------------| 
B|--------------------------------------------------------------------| 
G|--------------------------------------------------------------------| 
D|--0--7--6----0--7--6--0--2--3----0--7--6----0--7--6--0--2--3--------| 
A|--0--7--6----0--7--6--0--2--3----0--7--6----0--7--6--0--2--3--------| 
D|--0--7--6----0--7--6--0--2--3----0--7--6----0--7--6--0--2--3--------| 
 
and finish by playing Riff C once then back into verse.  
At the end of the second Chorus, go into this,Riff D 
 
E|-------------------------------------------------------------------------------| 
B|-------------------------------------------------------------------------------| 
G|-------------------------------------------------------------------------------| 
D|--0-0-0--7-7-6----0--2--3----0-0-0--7-7-6----0--2--3----0-0-0--7-7-6----0--2--3| 
A|--0-0-0--7-7-6----0--2--3----0-0-0--7-7-6----0--2--3----0-0-0--7-7-6----0--2--3| 
D|--0-0-0--7-7-6----0--2--3----0-0-0--7-7-6----0--2--3----0-0-0--7-7-6----0--2--3| 
 
E|-------------------------------| 
B|-------------------------------| 
G|-------------------------------| 
D|--0-0-0--7-7-6----x-x---x-x-x--| 
A|--0-0-0--7-7-6----x-x---x-x-x--| 
D|--0-0-0--7-7-6----x-x---x-x-x--| 
 
Play twice, and on second time finish just before muted strings are meant to be played. 
Then comes a verse break with I think some kind of pick tapping in the background,  
but just play riff A and finish on,  
E|--------------| 
B|--------------| 
G|--------------| 
D|--------------| 
A|----6-----6---| 
D|--0-----0-----| 
Now the variation.Play Twice 
Riff E 
  E|----------13----------------------------13-------------------------| 
  B|-------------------------------------------------------------------| 
  G|-------------------------------------------------------------------| 
  D|-3--3----------0-0-0--3--4-----3--3----------0-0-0--3--4-----------| 
  A|-3--3----------0-0-0--3--4-----3--3----------0-0-0--3--4-----------| 
  D|-3--3----------0-0-0--3--4-----3--3----------0-0-0--3--4-----------| 
P.M. -  -          - - -  -  -     -  -          - - -  -  -  
  E|----------13------------------------------------------------------| 
  B|------------------------------------------------------------------| 
  G|------------------------------------------------------------------| 
  D|-3--3----------0-0-0--3--4-----3--3---0---------------------------| 
  A|-3--3----------0-0-0--3--4-----3--3---0---------------------------| 
  D|-3--3----------0-0-0--3--4-----3--3---0--4*4*4*4*-/-3*3*3*-/-2*---| 
P.M. -  -          - - -  -  -     -  -      Slide Harmonics down fretboard 
Then go back to Riff D and play twice, which leads into Riff E again. 
Now comes that solo which I havnt tabbed, so just play the Chorus riff underneath it.  
To finish, end on  
E|----------| 
B|----------| 
G|----------| 
D|--0--7--6-| 
A|--0--7--6-| 
D|--0--7--6-| 
 

		  

auto scroll beats size up size down change color hide chords drawings
tab show chords e-chords YouTube Clip e-chords hide all tabs e-chords go to top tab

share