Testeagles

Just Another Pop Song

Testeagles

tabs

save to print version add songbook text version e-mail correct tuner
chordsukulelecavacokeyboardtabbassdrumsharmonicaflute Guitar Pro
close

there isn't a video lesson for this song

chords

Just Another Pop Song

	  		Guitar Tab 
Every string tuned down a whole step 
Key: 
^    = bend 
r    = return bend 
P.M. = palm-muting 
x    = muted string 
 
Riff 1  (Slap strings with open hand) 
D:--5--5--5---8--8--8------ 
A:--5--5--5---8--8--8------ 
F:--7--7--7---10-10-10----- 
C:--7--7--7---10-10-10----- 
G:--5--5--5---8--8--8------ 
D:-------------------------Riff 2  
 
D:--8h10-----------------8h10------12h13-12------- 
A:-------10---10^-10----------10------------13---- 
F:------------------------------------------------ 
C:------------------------------------------------ 
G:------------------------------------------------ 
D:------------------------------------------------ 
Riff 3   (Verse) 
D:--5--5--5---8--8--8------ 
A:--5--5--5---8--8--8------ 
F:--7--7--7---10-10-10----- 
C:--7--7--7---10-10-10----- 
G:--5--5--5---8--8--8------ 
D:------------------------- 
Riff 4  (Chorus) 
D:------------------------------------ 
A:------------------------------------ 
F:------------------------------------ 
C:--8-8-8-8-8-8-8-8--7-7-7-7-7-7-7-7-- 
G:--8-8-8-8-8-8-8-8--7-7-7-7-7-7-7-7-- 
D:--6-6-6-6-6-6-6-6--5-5-5-5-5-5-5-5-- 
     {----P.M.-----}  {----P.M.-----}  
D:---------------------------------------- 
A:---------------------------------------- 
F:--7-7-7-7-7-7-7-7-7-7-7-7--9-9-10-10-10- 
C:--7-7-7-7-7-7-7-7-7-7-7-7--9-9-10-10-10- 
G:--5-5-5-5-5-5-5-5-5-5-5-5--7-7-8--8--8-- 
D:---------------------------------------- 
     {-------P.M.---------} {don't play this bit last} 
			    {time through chorus     } 
Riff 5 
D:------------------------------------- 
A:------------------------------------- 
F:------------------------------------- 
C:------------------------------------- 
G:------------------------------------- 
D:--6-6-6-6-6-6-6-6--5-5-5-5-5-5-5-5--- 
 
D:------------------------------------ 
A:------------------------------------ 
F:------------------------------------ 
C:------------------------------------ 
G:--5-5-5-5-5-5-5-5-5-5-5-5-7-7-8-8-8- 
D:------------------------------------ 
Riff 6 
D:--------------------------------------------- 
A:--------------------------------------------- 
F:---15-15-15-10-10-10-15-15-14-14-14-9-9-9-14- 
C:---15-15-15-10-10-10-15-15-14-14-14-9-9-9-14- 
G:---13-13-13-8--8--8--13-13-12-12-12-7-7-7-12- 
D:--------------------------------------------- 
 
D:------------------------------------ 
A:------------------------------------ 
F:---7-7-x-7-7-x-7-7-x-7-7-x-7-7-x---- 
C:---7-7-x-7-7-x-7-7-x-7-7-x-7-7-x---- 
G:---5-5-x-5-5-x-5-5-x-5-5-x-5-5-x---- 
D:------------------------------------ 
Riff 7 
D:----- 
A:----- 
F:----- 
C:--8-- 
G:--8-- 
D:--6-- 
 
 

		  

auto scroll beats size up size down change color hide chords drawings
tab show chords e-chords YouTube Clip e-chords hide all tabs e-chords go to top tab

share