Temas de TV

home > Temas de TV

Tema De Evangelion Tab

Temas de TV

Difficulty: nolevelnolevel

by gustsilva

tuner correct add songbook print version text version save to e-mail
chordsukulelecavacokeyboardtabbassdrumsharmonicsflute Guitar Pro
chords

Tema De Evangelion

  		 
E||-------0----2---0---2--|--2--2--7--5--4-2--4-----|--4----7----9-------0--| 
B||--2--------------------|-------------------------|----------------7------| 
G||-----------------------|-------------------------|-----------------------| 
 


 
--7--7--4--7--7---9-----|PARTE  ------------------|------0------------0--| 
------------------------|CANTADA------------------|---------0-0----------| 
------------------------|       ------------------|----------------------| 
 


 
--0---2----------------|--4---5---4--2---0---2--|--4---5---4-------------| 
----------0--0------0--|------------------------|-------------2------2-4-| 
-----------------------|------------------------|------------------------| 
 


 
--0---0-------------0-2-|--5---4---2--0------4--|--4---2---1--2---------| 
----------4--4----------|-----------------------|------------------2----| 
------------------------|-----------------------|-----------------------| 
 


 
---------------------|------0-----------0--|--0---2----------------| 
--2------4--4--------|----------0----------|----------0--0------0--| 
---------------------|---------------------|-----------------------| 
 


 
--4---5---4--2---0---2--|--4---5---4-------------|--0---0-------------0-2-| 
------------------------|-------------2------2-4-|----------4--4----------| 
------------------------|------------------------|------------------------| 
 


 
--5---4---2--0------4--|--4---2---1--2---4---5--|--4----------------| 
-----------------------|------------------------|-------------------| 
-----------------------|------------------------|-------------------| 
 


 
--0----0-------0----0-------|--2----2----0---------------| 
------------4------------4--|---------------4----2----4--| 
----------------------------|----------------------------| 
 


 
--0----0-------2------------|-------------------|--0----0-------0----0-------| 
------------4-------4----2--|--0----------------|------------4--2----2----4--| 
----------------------------|-------------------|-------------------------4--| 
 


 
--2----2----0-------0----2--|--4----5----4--2----0----2--|--4----------------| 
--4----4----2--4----2----4--|--4----4----4--4----2----4--|-------------------| 
---------------4------------|----------------------------|--5----------------| 
 


 
-----------------------|--------7--5--4-2--4-----|--4----7----9-------0--| 
-------5----7---5---7--|--7--7-------------------|----------------7------| 
--6--------------------|-------------------------|-----------------------| 
 


 
--------------2-0--0-----|-------0----2---0---2--|--2--2--7--5--4-2--4-----| 
--4--4--2--4-------------|--2--------------------|-------------------------| 
-------------------------|-----------------------|-------------------------| 
 


 
--4----7----9-------0--|--7--7--4--7--7---9-----|-----------------------| 
----------------7------|------------------------|-------5----7---5---7--| 
-----------------------|------------------------|--6--------------------| 
 


--------7--5--4-2--4-----|--4----7----9-------0--|--7--7--4--7--7---9-----|| 
--7--7-------------------|----------------7------|------------------------|| 
-------------------------|-----------------------|------------------------|| 
	  

Search Paypal
auto scroll beats size up size down change color hide chords drawings
tab show chords e-chords YouTube Clip e-chords hide all tabs e-chords go to top tab