Temas de TV

home > Temas de TV

Flinstones Tab

Temas de TV

Difficulty: nolevelnolevel

by gustsilva

tuner correct add songbook print version text version save to e-mail
chordsukulelecavacokeyboardtabbassdrumsharmonicsflute Guitar Pro
chords

Flinstones

  		 
e|--------10-7---------------------------| 
B|--10---------10----10-8-7-7-8-10-----7-| 
G|-----7---------7-----------------7-9---| 
D|---------------------------------------| 
 

 
e|--------10-7---------------------------| 
B|--10---------10----10-8-7-7-8-10-------| 
G|-----7---------7-----------------7-9-7-| 
D|---------------------------------------| 
 

 
e|--9-----11-9-9-7-7-9-7---7---9-7-7-5-5-7-5-| 
B|----7----------------------5---------------| 
G|-------------------------------------------| 
 

 
e|--------10-7-------------------------------------| 
B|--10---------10----10-8-7-7-8-10------7-8-10-----| 
G|-----7---------7-----------------7-9---------7-9-| 
D|-------------------------------------------------| 
 

e|---------10-12-10--| 
B|--7-8-10-----------| 
G|-------------------| 
	  

Search Paypal
auto scroll beats size up size down change color hide chords drawings
tab show chords e-chords YouTube Clip e-chords hide all tabs e-chords go to top tab