Temas de TV

home > Temas de TV

Jornal Nacional Tab

Temas de TV

Difficulty: nolevelnolevel

by gustsilva

tuner correct add songbook print version text version save to e-mail
chordsukulelecavacokeyboardtabbassdrumsharmonicsflute Guitar Pro
chords

Jornal Nacional

  		 
E|-------------------------------------------------| 
B|-9---------9------------7-------7----------------| 
G|----10--------10-----------8-------8-------------| 
D|--------11--------11----------9-------9----------| 
A|-------------------------------------------------| 
E|-------------------------------------------------| 
 

 
E|-------------------------------------------------| 
B|-------------------------------------------------| 
G|--9-9-9--11-11-11-11---9-9-9--7------------------| 
D|-------------------------------------------------| 
A|-------------------------------------------------| 
E|-------------------------------------------------| 
 

E|-------------------------------------------------| 
B|-----10----10-12--13-12-13-12-10-----------------| 
G|--11----11-----------------------11--------------| 
D|-------------------------------------------------| 
A|-------------------------------------------------| 
E|-------------------------------------------------| 
	  

Search Paypal
auto scroll beats size up size down change color hide chords drawings
tab show chords e-chords YouTube Clip e-chords hide all tabs e-chords go to top tab