Tame Impala

Apocalypse Dreams

Tame Impala

tabs Expert expert

by  DEIVCAVALCANTI

save to print version add songbook text version e-mail correct tuner
chordsukulelecavacokeyboardtabbassdrumsharmonicaflute Guitar Pro
close

there isn't a video lesson for this song

chords

Apocalypse Dreams

	  		

E-2-----2--6-----------------------| 
B-2--8--2--8-----------------------| 
G-3--8--3--7-----------------------| 
D-4--8--4--8-----------------------| 
A-4--6--4--6-----------------------| 
E-2-----2--------------------------| 

E------------------------------------------------------------------| 
B-------------------------------------------------8----------------| 
G-------12/14--14/10-------------------------7---------------------| 
D-10/12--------------10-12-10-12-10------------10------------------| 
A-----------------------------------13-12-10-----------------------| 
E------------------------------------------------------------------| 

Synth guitar part: 

E---------------------------------------------------------------------| 
B---------------------------------------------------------------------| 
G---------------------------------------------------------------------| 
D-15-11-10-8-10-11-13-10-8---15-11-10-8-10-11-13-11-10-10-------------| 
A---------------------------------------------------------------------| 
E---------------------------------------------------------------------| 

E-------------------------------------------------------------------------| 
B-------------------------------------------------------------------------| 
G-------------------------------------------------------------------------| 
D-8-10-11-11-10-8-10-11-13-11-10-10-8--15-11-10-8-10-11-13-10-------------| 
A-------------------------------------------------------------------------| 
E-------------------------------------------------------------------------| 

E-----------------------------| 
B-11--------------11----------| 
G-11--12--12--10--11----------| 
D-11--13--12--11--11----------| 
A-9---13--13--11--9-----------| 
E-----11--11--9---------------| 


Outro: 

E-------------------13-13-11-13-11--------------------13-11-----------| 
B-14-14-13-14-13/11----------------14/16--11-11-13-14-------14-14-----| 
G---------------------------------------------------------------------| 
D---------------------------------------------------------------------| 
A---------------------------------------------------------------------| 
E---------------------------------------------------------------------| 
 
		  

auto scroll beats size up size down change color hide chords drawings
tab show chords e-chords YouTube Clip e-chords hide all tabs e-chords go to top tab

share