Supergrass

Lenny

Supergrass

tabs

save to print version add songbook text version e-mail correct tuner
chordsukulelecavacokeyboardtabbassdrumsharmonicaflute Guitar Pro
close

there isn't a video lesson for this song

chords

Lenny

	  		 
Intro: 
 
E|------------------------------------------------- 
B|------------------------------------------------- 
G|------------------------------------------------- 
D|------------------------------------------------- 
A|------------------------------------------------- 
E|---0--0--0--0--0--0--0--0--0--0--0--0----etc 
 
Verse: 
 
Riff A                                              Riff B 
E|-----------------------------------------|        |----------------------------------------| 
B|-----------------------------------------|        |----------------------------------------| 
G|-----------------------------------------|        |----------------------------------------| 
D|-----------------------------------------|        |----------------------4----4-5-6--------| 
A|--------------------------5-----5-6-7----|        |--------------4-5-6---6----------7------| 
E|---0-0-0-0---5-6-7-----7-----------------|        |---0-0-0-0------------------------------| 
 
This is played with Vocals 
 
Chorus: 
 
 
 B                                                     E 
 When I tell you    I don't want you hoo hoo 
 
Repeat VERSE and CHORUS again :) 
 
SOLO: 
 
Fsus4   F             Fsus4   F  
Ooooo  Oooooooo Ooooo  Oooooooooooooooooo 
 
E|----------------------|----------------------| 
B|----------------------|----------------------| 
G|----------------------|----------------------| 
D|--9-9-7---------------|---9-9-7--------------| 
A|----------9-8-7-------|-----------9-8-7------| 
E|------------------7---|-------------------7--| 
 
E|------------------------|----------------------------| 
B|------------------------|----------------------------| 
G|------------------------|----------------------------| 
D|---9-9-7----------------|----------------9-9---------| 
A|-----------9-8-7--------|----------------------------| 
E|-------------------7----|---10-10--7--------7--------| 
 
Fsus4   F              Fsus4   F 
Ooooo  Oooooooo  Ooooo  Oooooooooooooooooo 
 
E|----------------------|----------------------| 
B|----------------------|----------------------| 
G|----------------------|----------------------| 
D|--9-9-7---------------|---9-9-7--------------| 
A|----------9-8-7-------|-----------9-8-7------| 
E|------------------7---|-------------------7--| 
 
E|------------------------|------------------------| 
B|------------------------|------------------------| 
G|------------------------|------------------------| 
D|---9-9-7----------------|---9-9-7----------------| 
A|-----------9-8-7--------|-----------9-8-7--------| 
E|-------------------7----|-------------------7----| 
 
Fsus4   F            Fsus4   F 
Ooooo  Ooooooo  Ooooo  Ooooooooooooooooooo 
 
E|-----------------------------|------------------------|              
B|-----------------------------|------------------------|       
G|-----------------------------|--7-7-------------------|         Play        
D|-------9-9-7-------7-8-9-----|-------9-7--------------|      4 times :) 
B|----------------9------------|-------------9-8-7------|            
E|-----------------------------|------------------------|      
 
E|----------------------------------| 
B|----------------------------------|    
G|----------------------------------|         Play 
D|----------------------------------|      3 times :) 
A|-----------------7-7-7-7----------|     
E|---0-0-0-0-0-------------0--------| 
 
Verse again 
 
Ending: 
 
B                        A                           
When I tell you    When I tell you oooh   
B                                 A                           E 
YEAH When I tell you   I don't want you hoo hoo 

		  

Full key step upFull key step up
Half key step upHalf key step up
Half key step downHalf key step down
Full key step downFull key step down
hide glossary

See also:

tabs Avantasia - Sign Of The Cross tabs Bloodhound Gang - Fire Water Burn (The Roof is on Fire) tabs Deftones - Change tabs Crazy Town - Buterfly tabs Stone Sour - Bother tabs Interpol - Obstacle (ver. 1)
e-chords

Other versions:

tabs Lemmonheads, The - Lenny tabs Stevie Ray Vaughan - Lenny tabs Supergrass - Lenny
auto scroll beats size up size down change color hide chords drawings
tab show chords e-chords YouTube Clip e-chords hide all tabs e-chords go to top tab

share