Supergrass

Bad Blood

Supergrass

tabs

by  MARCNAGEL

save to print version add songbook text version e-mail correct tuner
chordsukulelecavacokeyboardtabbassdrumsharmonicaflute Guitar Pro
close

there isn't a video lesson for this song

chords

Bad Blood

	  		

Intro & Verse: 

e|---------------------------------------| 
B|---------------------------------------| 
G|-9-9-9-9-------------------------------| 
D|-9-9-9-9--9-9-9-9--5-5-5-5--7-7-7-5----| 
A|-7-7-7-7--9-9-9-9--5-5-5-5--7-7-----7-5| 
E|----------7-7-7-7--3-3-3-3--5-5--------| 

Chorus: 

e|-----------------------------------------------------------7-6-------| 
B|---------------------------------------------------------------10-8-7| 
G|---------------------------------------------------------------------| 
D|-9-9-9/12-5-5-5-7-5-----9-9-9/12-5--5/12--9-9-9/12-5--5/12-----------| 
A|-7-7-7/10-3-3-3-----7-5-7-7-7/10-3--3/10--7-7-7/10-3--3/10-----------| 
E|---------------------------------------------------------------------| 

Bridge: 

e|---------------5---------5----------------------------------| 
B|-5---5----------------------5-----3-----10-----12-14-15-----| 
G|-7b--7pbr--6h7---6-6-6h7----7b-t--5b-t--12b-t---------------| 
D|---------------------------------------------------------9--| 
A|---------------------------------------------------------7-t| 
E|------------------------------------------------------------| 

e|----------------------------------------------------------------------12-11--------| 
B|---------------------------------------------------------------------------15-13-12| 
G|-----------------------------------------------------------------------------------| 
D|-----------------------------------------------------------------------------------| 
A|-7-7-7/10-3-3-3-5-3-----7-7-7/10-3-3-3-5-3-----7-7-7/10-3-3-3-5-3------------------| 
E|-5-5-5/8--1-1-1-----5-3-5-5-5/8--1-1-1-----5-3-5-5-5/8--1-1-1-----5-3--------------| 



************************************ 

| /   slide up 
| \   slide down 
| h   hammer-on 
| p   pull-off 
| ~   vibrato 
| +   harmonic 
| x   Mute note 
| b   Bend 
| pb  Pre-bend 
| br  Bend release 
| pbr Pre-bend release 
| brb Bend release bend 
| t   Tremolo 
************************************ 
		  

See also:

tabs Avantasia - Sign Of The Cross tabs Bloodhound Gang - Fire Water Burn (The Roof is on Fire) tabs Deftones - Change tabs Crazy Town - Buterfly tabs Stone Sour - Bother tabs Interpol - Obstacle (ver. 1)
e-chords

Other versions:

tabs Yngwie Malmsteen - Bad blood tabs Washya - Bad Blood tabs Supergrass - Bad Blood tabs Coal Chamber - Bad Blood Between Us
auto scroll beats size up size down change color hide chords drawings
tab show chords e-chords YouTube Clip e-chords hide all tabs e-chords go to top tab

share