Superbus

Radio Song

Superbus

tabs Beginner beginner

by  AURE06

save to print version add songbook text version e-mail correct tuner
chordsukulelecavacokeyboardtabbassdrumsharmonicaflute Guitar Pro
close

there isn't a video lesson for this song

chords

Radio Song

	  		INTRO 

e--------------------------------------------------- 
b--------------------------------------------------- 
g--------------------------------------------------- 
d-----------------2323--------------5-3232---------- X3 
a--3/5555-----------------3/5555-------------------- 
e----------5-666------------------5----------------- 

VERSE 

e--5x-5x----10x-10x---     e--5x-5x----------10-- 
b--6x-6x----11x-11x---     b--6x-6x--------11---- 
g--7x-7x----12x-12x--- X2  g--7x-7x-----12------- 
d--7x-7x----12x-12x---     d--7x-7x--12---------- 
a--5x-5x----10x-10x---     a--5x-5x-------------- 
e---------------------     e--------------------- 

Chorus 

e------------------------------------------------ 
b------------------------------------------------ 
g--7--    --6--   --7--    --9--   -------------- 
d--7--X8  --7--X8 --8--X8  --10-X8 -------------- X2 
a--5--    --7--   --8--    --10-   -------------- 
e-----    --5--   --6--    --8--   -------------- 


INTRO X1 
VERSE X1 
Chorus X2 (2X2) 

e------------------------------------------------ 
b------------------------------------------------ 
g--7777------------------------------------------ 
d--7777--5555--3333--5/3h0p3--------------------- 
a--5555--5555--3333--5/3h0p3--------------------- 
e--------3333--1111--3/1h0p1--------------------- 

Chorus TO THE END 

PS: IT'S A FRENSH GROUPE 




		  

See also:

tabs Papas da Língua - No Calor da Hora tabs Frejat - Segredos tabs Roupa Nova - Seguindo no Trem Azul (solo) tabs Pholhas - Reflections of my life tabs Biquini Cavadão - Me Chama tabs Roupa Nova - Whisky A Go-Go (solo final)
e-chords

Other versions:

tabs Superbus - Radio Song
auto scroll beats size up size down change color hide chords drawings
tab show chords e-chords YouTube Clip e-chords hide all tabs e-chords go to top tab

share