Stone Sour

Absolute Zero

Stone Sour

tabs Expert expert

by  UBIRBOMFIM

save to print version add songbook text version e-mail correct tuner
chordsukulelecavacokeyboardtabbassdrumsharmonicaflute Guitar Pro
close

there isn't a video lesson for this song

chords

Absolute Zero

	  		

 
Guitar 1 
 


Intro 

Guitar 1 
D#-----------------------------| 
A#-----------------------------| 
F#-----------------------------| 
C#-----------------------------| 
G#-----------------------------| 
C#-3---5---3---6---5---3---5---| 

 

Guitar 1 
D#-----------------------------------------------------------------| 
A#-----------------------------------------------------------------| 
F#-7\~~~~~---------------------------------------------------------| 
C#-7\~~~~~-0---1~~~~~~-0---0---0---0---3---5---3---6---5---3---5---| 
G#-5\~~~~~-0---1~~~~~~-0---0---0---0---3---5---3---6---5---3---5---| 
C#---------0---1~~~~~~-0---0---0---0---3---5---3---6---5---3---5---| 
Pm                         .   .   . 

 

Guitar 1 
D#-----------------------------------------------------------------| 
A#-----------------------------------------------------------------| 
F#-7\~~~~~---------------------------------------------------------| 
C#-7\~~~~~-0---1~~~~~~-0---0---0---0---3---3---6---6---5---5---3---| 
G#-5\~~~~~-0---1~~~~~~-0---0---0---0---3---3---6---6---5---5---3---| 
C#---------0---1~~~~~~-0---0---0---0---3---3---6---6---5---5---3---| 
Pm                         .   .   . 

 

Guitar 1 
D#-----------------------------------------------------------------| 
A#-----------------------------------------------------------------| 
F#-7\~~~~~---------------------------------------------------------| 
C#-7\~~~~~-0---1~~~~~~-0---0---0---0---3---5---3---6---5---3---5---| 
G#-5\~~~~~-0---1~~~~~~-0---0---0---0---3---5---3---6---5---3---5---| 
C#---------0---1~~~~~~-0---0---0---0---3---5---3---6---5---3---5---| 
Pm                         .   .   . 

 

Guitar 1 
D#-----------------------------------------------------------------| 
A#-----------------------------------------------------------------| 
F#-7\~~~~~---------------------------------------------------------| 
C#-7\~~~~~-0---1~~~~~~-0---0---0---0---3---3---6---6---5---5---3---| 
G#-5\~~~~~-0---1~~~~~~-0---0---0---0---3---3---6---6---5---5---3---| 
C#---------0---1~~~~~~-0---0---0---0---3---3---6---6---5---5---3---| 
Pm                         .   .   . 

 
 


Verse 1 

(x2) 

Guitar 1 
D#------------------------------------------------------------------| 
A#------------------------------------------------------------------| 
F#-7\~~~~~-----------------------------------------7\~~~~~----------| 
C#-7\~~~~~-0---0---0---0---0---0---0---0---0---0---7\~~~~~-0---1~~~-| 
G#-5\~~~~~-0---0---0---0---0---0---0---0---0---0---5\~~~~~-0---1~~~-| 
C#---------0---0---0---0---0---0---0---0---0---0-----------0---1~~~-| 
Pm         .   .   .   .   .   .   .   .   .   . 

 

Guitar 1 
D#-----------------------------------------------------------------| 
A#-----------------------------------------------------------------| 
F#-----------------------------------------------------------------| 
C#-~~~-0---0---0---0---0---0---0---0-------------------------------| 
G#-~~~-0---0---0---0---0---0---0---0-------------------------------| 
C#-~~~-0---0---0---0---0---0---0---0---3---5---3---6---5---3---5---| 
Pm         .   .   .   .   . 

 

Guitar 1 
D#------------------------------------------------------------------| 
A#------------------------------------------------------------------| 
F#-7\~~~~~-----------------------------------------7\~~~~~----------| 
C#-7\~~~~~-0---0---0---0---0---0---0---0---0---0---7\~~~~~-0---1~~~-| 
G#-5\~~~~~-0---0---0---0---0---0---0---0---0---0---5\~~~~~-0---1~~~-| 
C#---------0---0---0---0---0---0---0---0---0---0-----------0---1~~~-| 
Pm         .   .   .   .   .   .   .   .   .   . 

 

Guitar 1 
D#-----------------------------------------------------------------| 
A#-----------------------------------------------------------------| 
F#-----------------------------------------------------------------| 
C#-~~~-0---0---0---0---0---0---0---0---3---3---6---6---5---5---3---| 
G#-~~~-0---0---0---0---0---0---0---0---3---3---6---6---5---5---3---| 
C#-~~~-0---0---0---0---0---0---0---0---3---3---6---6---5---5---3---| 
Pm         .   .   .   .   . 

 
 


Pre Chorus 1 

Guitar 1 
D#---------------------------------------------------------------| 
A#---------------------------------------------------------------| 
F#---------------------------------------------------------------| 
C#---------------------------------------------------------------| 
G#---------------------------------------------------------------| 
C#-8-8-8-8-8-8-7-7-7-7-7-7-7-7-7-7-0-0-7-7-0-0-10-10-8-8-7-7-0-0-| 
Pm . . . . . . . . . . . . . . . . . . . . . . .  .  . . . . . . 

 

Guitar 1 
D#-----------------------------------------------------------------| 
A#-----------------------------------------------------------------| 
F#-----------------------------------------------------------------| 
C#-----------------------------------------------------3~~~~-5~~~~-| 
G#-----------------------------------------------------3~~~~-5~~~~-| 
C#-8-8-8-8-8-8-7-7-7-7-7-7-7-7-7-7-0-0-5-5-0-0-5-5-0-0-3~~~~-5~~~~-| 
Pm . . . . . . . . . . . . . . . . . . . . . . . . . . 

 

Guitar 1 
D#-----------------------------------------------------------------| 
A#-----------------------------------------------------------------| 
F#-----------------------------------------------------------------| 
C#-8---8---8---7---7---7---7---7---7---0---7---0--/10--8---7---0---| 
G#-8---8---8---7---7---7---7---7---7---0---7---0--/10--8---7---0---| 
C#-8---8---8---7---7---7---7---7---7---0---7---0--/10--8---7---0---| 
Pm                                     .       .               . 

 

Guitar 1 
D#-----------------------------------------------------------------| 
A#-----------------------------------------------------------------| 
F#-----------------------------------------------------------------| 
C#-8---8---8---7---7---7---7---7---7---8---8---9---9---10--10--11--| 
G#-8---8---8---7---7---7---7---7---7---8---8---9---9---10--10--11--| 
C#-8---8---8---7---7---7---7---7---7---8---8---9---9---10--10--11--| 

 
 


Chorus 1 

Guitar 1 
D#-----------------------------------------------------------------| 
A#-----------------------------------------------------------------| 
F#-7\~~~~~---------5---5---5---3~~~~~~-----------------------------| 
C#-7\~~~~~-0~~~~~~-5---5---5---3~~~~~~-----------------------------| 
G#-5\~~~~~-0~~~~~~-3---3---3---1~~~~~~-----1-------3h5p3---1~~~~~~-| 
C#---------0~~~~~~---------------------3-------3-------------------| 

 

Guitar 1 
D#-----------------------------------------------------------------| 
A#-----------------------------------------------------------------| 
F#-3~~~~~~-3~~~~~~-5---5---5---7~~~~~~-----------------------------| 
C#-3~~~~~~-3~~~~~~-5---5---5---7~~~~~~-0---0---0---0---0---0---0---| 
G#-1~~~~~~-1~~~~~~-3---3---3---5~~~~~~-0---0---0---0---0---0---0---| 
C#-------------------------------------0---0---0---0---0---0---0---| 
Pm                                     .   .   .   .   .   .   . 

 

Guitar 1 
D#-----------------------------------------------------------------| 
A#-----------------------------------------------------------------| 
F#-7~~~~~~-7~~~~~~-5---5---5---3~~~~~~-----------------------------| 
C#-7~~~~~~-7~~~~~~-5---5---5---3~~~~~~-----------------------------| 
G#-5~~~~~~-5~~~~~~-3---3---3---1~~~~~~-----1-------3h5p3---1~~~~~~-| 
C#-------------------------------------3-------3-------------------| 

 

Guitar 1 
D#-----------------------------------------------------------------| 
A#-----------------------------------------------------------------| 
F#-3~~~~~~-3~~~~~~-7~~~~~~~~~~-5~~~~~~~~~~~~~~~~~~~~~~~~~~-6~~~~~~-| 
C#-3~~~~~~-3~~~~~~-7~~~~~~~~~~-5~~~~~~~~~~~~~~~~~~~~~~~~~~-6~~~~~~-| 
G#-1~~~~~~-1~~~~~~-5~~~~~~~~~~-3~~~~~~~~~~~~~~~~~~~~~~~~~~-4~~~~~~-| 
C#-----------------------------------------------------------------| 

 
 


Bridge 1 

(x2) 

Guitar 1 
D#-----------------------------------------------------------------| 
A#-----------------------------------------------------------------| 
F#-7\~~~~~---------------------------------------------------------| 
C#-7\~~~~~-0---1~~~~~~-0---0---0---0---3---5---3---6---5---3---5---| 
G#-5\~~~~~-0---1~~~~~~-0---0---0---0---3---5---3---6---5---3---5---| 
C#---------0---1~~~~~~-0---0---0---0---3---5---3---6---5---3---5---| 
Pm                         .   .   . 

 

Guitar 1 
D#-----------------------------------------------------------------| 
A#-----------------------------------------------------------------| 
F#-7\~~~~~---------------------------------------------------------| 
C#-7\~~~~~-0---1~~~~~~-0---0---0---0---3---3---6---6---5---5---3---| 
G#-5\~~~~~-0---1~~~~~~-0---0---0---0---3---3---6---6---5---5---3---| 
C#---------0---1~~~~~~-0---0---0---0---3---3---6---6---5---5---3---| 
Pm                         .   .   . 

 
 


Verse 2 

Guitar 1 
D#------------------------------------------------------------------| 
A#------------------------------------------------------------------| 
F#-7\~~~~~-----------------------------------------7\~~~~~----------| 
C#-7\~~~~~-0---0---0---0---0---0---0---0---0---0---7\~~~~~-0---1~~~-| 
G#-5\~~~~~-0---0---0---0---0---0---0---0---0---0---5\~~~~~-0---1~~~-| 
C#---------0---0---0---0---0---0---0---0---0---0-----------0---1~~~-| 
Pm         .   .   .   .   .   .   .   .   .   . 

 

Guitar 1 
D#-----------------------------------------------------------------| 
A#-----------------------------------------------------------------| 
F#-----------------------------------------------------------------| 
C#-~~~-0---0---0---0---0---0---0---0-------------------------------| 
G#-~~~-0---0---0---0---0---0---0---0-------------------------------| 
C#-~~~-0---0---0---0---0---0---0---0---3---5---3---6---5---3---5---| 
Pm         .   .   .   .   . 

 

Guitar 1 
D#------------------------------------------------------------------| 
A#------------------------------------------------------------------| 
F#-7\~~~~~-----------------------------------------7\~~~~~----------| 
C#-7\~~~~~-0---0---0---0---0---0---0---0---0---0---7\~~~~~-0---1~~~-| 
G#-5\~~~~~-0---0---0---0---0---0---0---0---0---0---5\~~~~~-0---1~~~-| 
C#---------0---0---0---0---0---0---0---0---0---0-----------0---1~~~-| 
Pm         .   .   .   .   .   .   .   .   .   . 

 

Guitar 1 
D#-----------------------------------------------------------------| 
A#-----------------------------------------------------------------| 
F#-----------------------------------------------------------------| 
C#-~~~-0---0---0---0---0---0---0---0---3---3---6---6---5---5---3---| 
G#-~~~-0---0---0---0---0---0---0---0---3---3---6---6---5---5---3---| 
C#-~~~-0---0---0---0---0---0---0---0---3---3---6---6---5---5---3---| 
Pm         .   .   .   .   . 

 
 


Pre Chorus 

Guitar 1 
D#---------------------------------------------------------------| 
A#---------------------------------------------------------------| 
F#---------------------------------------------------------------| 
C#---------------------------------------------------------------| 
G#---------------------------------------------------------------| 
C#-8-8-8-8-8-8-7-7-7-7-7-7-7-7-7-7-0-0-7-7-0-0-10-10-8-8-7-7-0-0-| 
Pm . . . . . . . . . . . . . . . . . . . . . . .  .  . . . . . . 

 

Guitar 1 
D#-----------------------------------------------------------------| 
A#-----------------------------------------------------------------| 
F#-----------------------------------------------------------------| 
C#-----------------------------------------------------3~~~~-5~~~~-| 
G#-----------------------------------------------------3~~~~-5~~~~-| 
C#-8-8-8-8-8-8-7-7-7-7-7-7-7-7-7-7-0-0-5-5-0-0-5-5-0-0-3~~~~-5~~~~-| 
Pm . . . . . . . . . . . . . . . . . . . . . . . . . . 

 

Guitar 1 
D#-----------------------------------------------------------------| 
A#-----------------------------------------------------------------| 
F#-----------------------------------------------------------------| 
C#-8---8---8---7---7---7---7---7---7---0---7---0--/10--8---7---0---| 
G#-8---8---8---7---7---7---7---7---7---0---7---0--/10--8---7---0---| 
C#-8---8---8---7---7---7---7---7---7---0---7---0--/10--8---7---0---| 
Pm                                     .       .               . 

 

Guitar 1 
D#-----------------------------------------------------------------| 
A#-----------------------------------------------------------------| 
F#-----------------------------------------------------------------| 
C#-8---8---8---7---7---7---7---7---7---8---8---9---9---10--10--11--| 
G#-8---8---8---7---7---7---7---7---7---8---8---9---9---10--10--11--| 
C#-8---8---8---7---7---7---7---7---7---8---8---9---9---10--10--11--| 

 
 


Chorus 2 

Guitar 1 
D#-----------------------------------------------------------------| 
A#-----------------------------------------------------------------| 
F#-7\~~~~~---------5---5---5---3~~~~~~-----------------------------| 
C#-7\~~~~~-0~~~~~~-5---5---5---3~~~~~~-----------------------------| 
G#-5\~~~~~-0~~~~~~-3---3---3---1~~~~~~-----1-------3h5p3---1~~~~~~-| 
C#---------0~~~~~~---------------------3-------3-------------------| 

 

Guitar 1 
D#-----------------------------------------------------------------| 
A#-----------------------------------------------------------------| 
F#-3~~~~~~-3~~~~~~-5---5---5---7~~~~~~-----------------------------| 
C#-3~~~~~~-3~~~~~~-5---5---5---7~~~~~~-0---0---0---0---0---0---0---| 
G#-1~~~~~~-1~~~~~~-3---3---3---5~~~~~~-0---0---0---0---0---0---0---| 
C#-------------------------------------0---0---0---0---0---0---0---| 
Pm                                     .   .   .   .   .   .   . 

 

Guitar 1 
D#-----------------------------------------------------------------| 
A#-----------------------------------------------------------------| 
F#-7~~~~~~-7~~~~~~-5---5---5---3~~~~~~-----------------------------| 
C#-7~~~~~~-7~~~~~~-5---5---5---3~~~~~~-----------------------------| 
G#-5~~~~~~-5~~~~~~-3---3---3---1~~~~~~-----1-------3h5p3---1~~~~~~-| 
C#-------------------------------------3-------3-------------------| 

 

Guitar 1 
D#-----------------------------| 
A#-----------------------------| 
F#-3~~~~~~-3~~~~~~-7---7---5---| 
C#-3~~~~~~-3~~~~~~-7---7---5---| 
G#-1~~~~~~-1~~~~~~-5---5---3---| 
C#-----------------------------| 

 
 


Bridge 2 

Guitar 1 
D#-----------------------------------------------------------------| 
A#-----------------------------------------------------------------| 
F#-5~~~~~~~~~~~~~~~~~~~~~~~~~~-5---5~~~~~~~~~~~~~~~~~~~~~~~~~~-5---| 
C#-5~~~~~~~~~~~~~~~~~~~~~~~~~~-5---5~~~~~~~~~~~~~~~~~~~~~~~~~~-5---| 
G#-3~~~~~~~~~~~~~~~~~~~~~~~~~~-3---3~~~~~~~~~~~~~~~~~~~~~~~~~~-3---| 
C#-----------------------------------------------------------------| 

 

Guitar 1 
D#-----------------------------------------------------------------| 
A#-----------------------------------------------------------------| 
F#-5~~~~~~~~~~~~~~~~~~~~~~~~~~-5---5~~~~~~~~~~~~~~~~~~~~~~-6~~~~~~-| 
C#-5~~~~~~~~~~~~~~~~~~~~~~~~~~-5---5~~~~~~~~~~~~~~~~~~~~~~-6~~~~~~-| 
G#-3~~~~~~~~~~~~~~~~~~~~~~~~~~-3---3~~~~~~~~~~~~~~~~~~~~~~-4~~~~~~-| 
C#-----------------------------------------------------------------| 

 
 


Guitar Solo 

Guitar 1 
D#-----------------------------------------------------------------| 
A#-----------------------------------------------------------------| 
F#-7---8---7~~~~~~-------------------------------------------------| 
C#-7---8---7~~~~~~-0---0---0---8---0---10--0---7---0---7---7---8---| 
G#-5---6---5~~~~~~-0---0---0---8---0---10--0---7---0---7---7---8---| 
C#-----------------0---0---0---8---0---10--0---7---0---7---7---8---| 
Pm                 .   .   .       .       .       . 

 

Guitar 1 
D#-----------------------------------------------------------------| 
A#-----------------------------------------------------------------| 
F#-7---8---7~~~~~~-------------------------------------------------| 
C#-7---8---7~~~~~~-0---0---0---8---0---8---0---8---10~~~~~~~~~~~~~-| 
G#-5---6---5~~~~~~-0---0---0---8---0---8---0---8---10~~~~~~~~~~~~~-| 
C#-----------------0---0---0---8---0---8---0---8---10~~~~~~~~~~~~~-| 
Pm                 .   .   .       .       . 

 

Guitar 1 
D#-----------------------------------------------------------------| 
A#-----------------------------------------------------------------| 
F#-7---8---7~~~~~~-------------------------------------------------| 
C#-7---8---7~~~~~~-0---0---0---8---0---10--0---7---0---7---7---8---| 
G#-5---6---5~~~~~~-0---0---0---8---0---10--0---7---0---7---7---8---| 
C#-----------------0---0---0---8---0---10--0---7---0---7---7---8---| 
Pm                 .   .   .       .       .       . 

 

Guitar 1 
D#-----------------------------------------------------------------| 
A#-----------------------------------------------------------------| 
F#-7---8---7~~~~~~-------------------------------------------------| 
C#-7---8---7~~~~~~-0---0---0---8---0---8---0---8---10~~~~~~~~~~~~~-| 
G#-5---6---5~~~~~~-0---0---0---8---0---8---0---8---10~~~~~~~~~~~~~-| 
C#-----------------0---0---0---8---0---8---0---8---10~~~~~~~~~~~~~-| 
Pm                 .   .   .       .       . 

 

Guitar 1 
D#-----------------------------------------------------------------| 
A#-------/15--13~~-11h13p11-10--11--13--11--10--11--11-10----------| 
F#--------------------------------------------------------10-------| 
C#-12~~~-----------------------------------------------------10-8--| 
G#-----------------------------------------------------------------| 
C#-----------------------------------------------------------------| 

 

Guitar 1 
D#-----------------------------------------------------------------| 
A#-----------------------------------------------------------------| 
F#-----------------------------------------------------------------| 
C#-8-10-8---------0---2---3---5~~~-3---2---3---2h3p2---------------| 
G#--------12-10-8--------------------------------------3---1~~~~~~-| 
C#-----------------------------------------------------------------| 

 

Guitar 1 
D#-12-13-12-13-12-17-13-12-------13-12----------13-12---------| 
A#-------------------------15-12-------15-13-12------15-13-12-| 
F#------------------------------------------------------------| 
C#------------------------------------------------------------| 
G#------------------------------------------------------------| 
C#------------------------------------------------------------| 

Guitar 1 continued 
D#-------------------10--------------------------------------------| 
A#-10-11-13-10-11-13----13-11-10-11-13-----------------------17-18-| 
F#-------------------------------------9-10-12-10-9-10-12~~~-------| 
C#-----------------------------------------------------------------| 
G#-----------------------------------------------------------------| 
C#-----------------------------------------------------------------| 

 

Guitar 1 
D#-17------15------13----------------------------------------------| 
A#-----18------17------17--15--17--11-10---------------------------| 
F#---------------------------------------10------------------------| 
C#-------------------------------------------10--8--8--7-----------| 
G#---------------------------------------------------------8---5---| 
C#-----------------------------------------------------------------| 

 
 


Interlude 

Guitar 1 
D#-----------------------------------------------------------------| 
A#-----------------------------------------------------------------| 
F#-----------------------------------------------------------------| 
C#-------------------------------------------------8---10--10--8---| 
G#-------------------------------------------------8---10--10--8---| 
C#-8~~~~~~~~~~~~~~~~~~~~~~~~~~~~~~~~~~~~~~~~~~~~~~-8---10--10--8---| 

 

Guitar 1 
D#-----------------------------------------------------------------| 
A#-------------------------3~~~~~~~~~~~~~~~~~~~~~~~~~~~~~~~~~~~~~~-| 
F#-------------------------2~~~~~~~~~~~~~~~~~~~~~~~~~~~~~~~~~~~~~~-| 
C#-7~~~~~~~~~~-0~~~~~~~~~~-0~~~~~~~~~~~~~~~~~~~~~~~~~~~~~~~~~~~~~~-| 
G#-7~~~~~~~~~~-0~~~~~~~~~~-0~~~~~~~~~~~~~~~~~~~~~~~~~~~~~~~~~~~~~~-| 
C#-7~~~~~~~~~~-0~~~~~~~~~~-0~~~~~~~~~~~~~~~~~~~~~~~~~~~~~~~~~~~~~~-| 

 

Guitar 1 
D#-----------------------------------------------------------------| 
A#-----------------------------------------------------------------| 
F#-----------------------------------------------------------------| 
C#-8~~~~~~~~~~~~~~~~~~~~~~~~~~~~~~~~~~~~~~~~~~~~~~-8---10--10--8---| 
G#-8~~~~~~~~~~~~~~~~~~~~~~~~~~~~~~~~~~~~~~~~~~~~~~-8---10--10--8---| 
C#-8~~~~~~~~~~~~~~~~~~~~~~~~~~~~~~~~~~~~~~~~~~~~~~-8---10--10--8---| 

 

Guitar 1 
D#-----------------------------------------------------------------| 
A#-----------------------------------------------------------------| 
F#---------------------------------2---3---3---5---5---7---7---8---| 
C#-7~~~~~~~~~~~~~~~~~~~~~~~~~~~~~~-x---x---x---x---x---x---x---x---| 
G#-7~~~~~~~~~~~~~~~~~~~~~~~~~~~~~~-0---1---1---3---3---5---5---6---| 
C#-7~~~~~~~~~~~~~~~~~~~~~~~~~~~~~~---------------------------------| 

 
 


Bridge 3 

Guitar 1 
D#------------------------------------------------------------------| 
A#------------------------------------------------------------------| 
F#-7\~~~~~-----------------------------------------7\~~~~~----------| 
C#-7\~~~~~-0---0---0---0---0---0---0---0---0---0---7\~~~~~-0---1~~~-| 
G#-5\~~~~~-0---0---0---0---0---0---0---0---0---0---5\~~~~~-0---1~~~-| 
C#---------0---0---0---0---0---0---0---0---0---0-----------0---1~~~-| 
Pm         .   .   .   .   .   .   .   .   .   . 

 

Guitar 1 
D#-----------------------------------------------------------------| 
A#-----------------------------------------------------------------| 
F#-----------------------------------------------------------------| 
C#-~~~-0---0---0---0---0---0---0---0-------------------------------| 
G#-~~~-0---0---0---0---0---0---0---0-------------------------------| 
C#-~~~-0---0---0---0---0---0---0---0---3---5---3---6---5---3---5---| 
Pm         .   .   .   .   . 

 

Guitar 1 
D#-----------------------------------------------------------------| 
A#-----------------------------------------------------------------| 
F#-7\~~~~~-----------------------------------------7\~~~~~---------| 
C#-7\~~~~~-0---0---0---0---0---0---0---0---0---0---7\~~~~~-0---0---| 
G#-5\~~~~~-0---0---0---0---0---0---0---0---0---0---5\~~~~~-0---0---| 
C#---------0---0---0---0---0---0---0---0---0---0-----------0---0---| 
Pm         .   .   .   .   .   .   .   .   .   . 

 

Guitar 1 
D#-----------------------------------------------------------------| 
A#-----------------------------------------------------------------| 
F#-7-------------------------------2---3---3---5---5---7---7---8---| 
C#-7-------------------------------x---x---x---x---x---x---x---x---| 
G#-5-------------------------------0---1---1---3---3---5---5---6---| 
C#-----------------------------------------------------------------| 

 
 


Chorus 3 

Guitar 1 
D#-----------------------------------------------------------------| 
A#-----------------------------------------------------------------| 
F#-7\~~~~~---------5---5---5---3~~~~~~-----------------------------| 
C#-7\~~~~~-0~~~~~~-5---5---5---3~~~~~~-----------------------------| 
G#-5\~~~~~-0~~~~~~-3---3---3---1~~~~~~-----1-------3h5p3---1~~~~~~-| 
C#---------0~~~~~~---------------------3-------3-------------------| 

 

Guitar 1 
D#-----------------------------------------------------------------| 
A#-----------------------------------------------------------------| 
F#-3~~~~~~-3~~~~~~-5---5---5---7~~~~~~-----------------------------| 
C#-3~~~~~~-3~~~~~~-5---5---5---7~~~~~~-0---0---0---0---0---0---0---| 
G#-1~~~~~~-1~~~~~~-3---3---3---5~~~~~~-0---0---0---0---0---0---0---| 
C#-------------------------------------0---0---0---0---0---0---0---| 
Pm                                     .   .   .   .   .   .   . 

 

Guitar 1 
D#-----------------------------------------------------------------| 
A#-----------------------------------------------------------------| 
F#-7~~~~~~-7~~~~~~-5---5---5---3~~~~~~-----------------------------| 
C#-7~~~~~~-7~~~~~~-5---5---5---3~~~~~~-----------------------------| 
G#-5~~~~~~-5~~~~~~-3---3---3---1~~~~~~-----1-------3h5p3---1~~~~~~-| 
C#-------------------------------------3-------3-------------------| 

 

Guitar 1 
D#-----------------------------------------------------------------| 
A#-----------------------------------------------------------------| 
F#-3~~~~~~-3~~~~~~-5---5---5---7~~~~~~-----------------------------| 
C#-3~~~~~~-3~~~~~~-5---5---5---7~~~~~~-0---0---0---0---0---0---0---| 
G#-1~~~~~~-1~~~~~~-3---3---3---5~~~~~~-0---0---0---0---0---0---0---| 
C#-------------------------------------0---0---0---0---0---0---0---| 
Pm                                     .   .   .   .   .   .   . 

 

Guitar 1 
D#-----------------------------------------------------------------| 
A#-----------------------------------------------------------------| 
F#-7\~~~~~---------5---5---5---3~~~~~~-----------------------------| 
C#-7\~~~~~-0~~~~~~-5---5---5---3~~~~~~-----------------------------| 
G#-5\~~~~~-0~~~~~~-3---3---3---1~~~~~~-----1-------3h5p3---1~~~~~~-| 
C#---------0~~~~~~---------------------3-------3-------------------| 

 

Guitar 1 
D#-----------------------------------------------------------------| 
A#-----------------------------------------------------------------| 
F#-3~~~~~~-3~~~~~~-5---5---5---7~~~~~~-----------------------------| 
C#-3~~~~~~-3~~~~~~-5---5---5---7~~~~~~-0---0---0---0---0---0---0---| 
G#-1~~~~~~-1~~~~~~-3---3---3---5~~~~~~-0---0---0---0---0---0---0---| 
C#-------------------------------------0---0---0---0---0---0---0---| 
Pm                                     .   .   .   .   .   .   . 

 

Guitar 1 
D#-----------------------------------------------------------------| 
A#-----------------------------------------------------------------| 
F#-7~~~~~~-7~~~~~~-5---5---5---3~~~~~~-----------------------------| 
C#-7~~~~~~-7~~~~~~-5---5---5---3~~~~~~-----------------------------| 
G#-5~~~~~~-5~~~~~~-3---3---3---1~~~~~~-----1-------3h5p3---1~~~~~~-| 
C#-------------------------------------3-------3-------------------| 

 

Guitar 1 
D#-----------------------------| 
A#-----------------------------| 
F#-3~~~~~~-3~~~~~~-7---7---5---| 
C#-3~~~~~~-3~~~~~~-7---7---5---| 
G#-1~~~~~~-1~~~~~~-5---5---3---| 
C#-----------------------------| 

Guitar 1 
D#-----------------------------------------------------------------| 
A#-----------------------------------------------------------------| 
F#-5~~~~~~~~~~~~~~~~~~~~~~~~~~-5---5~~~~~~~~~~~~~~~~~~~~~~-6~~~~~~-| 
C#-5~~~~~~~~~~~~~~~~~~~~~~~~~~-5---5~~~~~~~~~~~~~~~~~~~~~~-6~~~~~~-| 
G#-3~~~~~~~~~~~~~~~~~~~~~~~~~~-3---3~~~~~~~~~~~~~~~~~~~~~~-4~~~~~~-| 
C#-----------------------------------------------------------------| 

 
 


Outro 

Guitar 1 
D#-----------------------------------------------------------------| 
A#-----------------------------------------------------------------| 
F#-7\~~~~~---------------------------------------------------------| 
C#-7\~~~~~-0---1~~~~~~-0---0---0---0---3---5---3---6---5---3---5---| 
G#-5\~~~~~-0---1~~~~~~-0---0---0---0---3---5---3---6---5---3---5---| 
C#---------0---1~~~~~~-0---0---0---0---3---5---3---6---5---3---5---| 
Pm                         .   .   . 

 

Guitar 1 
D#-----------------------------------------------------------------| 
A#-----------------------------------------------------------------| 
F#-7\~~~~~---------------------------------------------------------| 
C#-7\~~~~~-0---1~~~~~~-0---0---0---0---3---3---6---6---5---5---3---| 
G#-5\~~~~~-0---1~~~~~~-0---0---0---0---3---3---6---6---5---5---3---| 
C#---------0---1~~~~~~-0---0---0---0---3---3---6---6---5---5---3---| 
Pm                         .   .   . 

 

Guitar 1 
D#-----------------------------------------------------------------| 
A#-----------------------------------------------------------------| 
F#-7\~~~~~---------------------------------------------------------| 
C#-7\~~~~~-0---1~~~~~~-0---0---0---0---3---5---3---6---5---3---5---| 
G#-5\~~~~~-0---1~~~~~~-0---0---0---0---3---5---3---6---5---3---5---| 
C#---------0---1~~~~~~-0---0---0---0---3---5---3---6---5---3---5---| 
Pm                         .   .   . 

 

Guitar 1 
D#-----------------------------------------------------------------| 
A#-----------------------------------------------------------------| 
F#-7\~~~~~---------------------------------------------------------| 
C#-7\~~~~~-0---1~~~~~~-0---0---0---0---3---5---3---6---5---3---5---| 
G#-5\~~~~~-0---1~~~~~~-0---0---0---0---3---5---3---6---5---3---5---| 
C#---------0---1~~~~~~-0---0---0---0---3---5---3---6---5---3---5---| 
Pm                         .   .   . 

 
 
 


 
Guitar 2 
 


Intro 

Guitar 2 
D#-----------------------------------------------------------------| 
A#-----------------------------------------------------------------| 
F#-7\~~~~~---------------------------------------------------------| 
C#-7\~~~~~-0---1~~~~~~-0---0---0---0---3---5---3---6---5---3---5---| 
G#-5\~~~~~-0---1~~~~~~-0---0---0---0---3---5---3---6---5---3---5---| 
C#---------0---1~~~~~~-0---0---0---0---3---5---3---6---5---3---5---| 
Pm                         .   .   . 

 

Guitar 2 
D#-----------------------------------------------------------------| 
A#-----------------------------------------------------------------| 
F#-7\~~~~~---------------------------------------------------------| 
C#-7\~~~~~-0---1~~~~~~-0---0---0---0---3---3---6---6---5---5---3---| 
G#-5\~~~~~-0---1~~~~~~-0---0---0---0---3---3---6---6---5---5---3---| 
C#---------0---1~~~~~~-0---0---0---0---3---3---6---6---5---5---3---| 
Pm                         .   .   . 

 

Guitar 2 
D#-----------------------------------------------------------------| 
A#-----------------------------------------------------------------| 
F#-7\~~~~~---------------------------------------------------------| 
C#-7\~~~~~-0---1~~~~~~-0---0---0---0---3---5---3---6---5---3---5---| 
G#-5\~~~~~-0---1~~~~~~-0---0---0---0---3---5---3---6---5---3---5---| 
C#---------0---1~~~~~~-0---0---0---0---3---5---3---6---5---3---5---| 
Pm                         .   .   . 

 

Guitar 2 
D#-----------------------------------------------------------------| 
A#-----------------------------------------------------------------| 
F#-7\~~~~~---------------------------------------------------------| 
C#-7\~~~~~-0---1~~~~~~-0---0---0---0---3---3---6---6---5---5---3---| 
G#-5\~~~~~-0---1~~~~~~-0---0---0---0---3---3---6---6---5---5---3---| 
C#---------0---1~~~~~~-0---0---0---0---3---3---6---6---5---5---3---| 
Pm                         .   .   . 

 
 


Verse 1 

(x2) 

Guitar 2 
D#------------------------------------------------------------------| 
A#------------------------------------------------------------------| 
F#-7\~~~~~-----------------------------------------7\~~~~~----------| 
C#-7\~~~~~-0---0---0---0---0---0---0---0---0---0---7\~~~~~-0---1~~~-| 
G#-5\~~~~~-0---0---0---0---0---0---0---0---0---0---5\~~~~~-0---1~~~-| 
C#---------0---0---0---0---0---0---0---0---0---0-----------0---1~~~-| 
Pm         .   .   .   .   .   .   .   .   .   . 

 

Guitar 2 
D#-----------------------------------------------------------------| 
A#-----------------------------------------------------------------| 
F#-----------------------------------------------------------------| 
C#-~~~-0---0---0---0---0---0---0---0-------------------------------| 
G#-~~~-0---0---0---0---0---0---0---0-------------------------------| 
C#-~~~-0---0---0---0---0---0---0---0---3---5---3---6---5---3---5---| 
Pm         .   .   .   .   . 

 

Guitar 2 
D#------------------------------------------------------------------| 
A#------------------------------------------------------------------| 
F#-7\~~~~~-----------------------------------------7\~~~~~----------| 
C#-7\~~~~~-0---0---0---0---0---0---0---0---0---0---7\~~~~~-0---1~~~-| 
G#-5\~~~~~-0---0---0---0---0---0---0---0---0---0---5\~~~~~-0---1~~~-| 
C#---------0---0---0---0---0---0---0---0---0---0-----------0---1~~~-| 
Pm         .   .   .   .   .   .   .   .   .   . 

 

Guitar 2 
D#-----------------------------------------------------------------| 
A#-----------------------------------------------------------------| 
F#-----------------------------------------------------------------| 
C#-~~~-0---0---0---0---0---0---0---0---3---3---6---6---5---5---3---| 
G#-~~~-0---0---0---0---0---0---0---0---3---3---6---6---5---5---3---| 
C#-~~~-0---0---0---0---0---0---0---0---3---3---6---6---5---5---3---| 
Pm         .   .   .   .   . 

 
 


Pre Chorus 

 

Rest 

 

Guitar 2 
D#-----------------------------------------------------------------| 
A#-----------------------------------------------------------------| 
F#-----------------------------------------------------------------| 
C#-----------------------------------------------------3~~~~-5~~~~-| 
G#-----------------------------------------------------3~~~~-5~~~~-| 
C#-----------------------------------------------------3~~~~-5~~~~-| 

 

Guitar 2 
D#-----------------------------------------------------------------| 
A#-----------------------------------------------------------------| 
F#-10--10--10--9---9---9---9---9---9-------9------/12--10--9-------| 
C#-x---x---x---x---x---x---x---x---x---0---x---0--/x---x---x---0---| 
G#-8---8---8---7---7---7---7---7---7---0---7---0--/10--8---7---0---| 
C#-------------------------------------0-------0---------------0---| 
Pm                                     .       .               . 

 

Guitar 2 
D#-----------------------------------------------------------------| 
A#-----------------------------------------------------------------| 
F#-10--10--10--9---9---9---9---9---9---10--10--11--11--12--12--13--| 
C#-x---x---x---x---x---x---x---x---x---x---x---x---x---x---x---x---| 
G#-8---8---8---7---7---7---7---7---7---8---8---9---9---10--10--11--| 
C#-----------------------------------------------------------------| 

 
 


Chorus 1 

Guitar 2 
D#-----------------------------------------------------------------| 
A#-10~~~~~-10~~~~~-8---8---8---6~~~~~~-----------------------------| 
F#-x-------x-------x---x---x---x-----------------------------------| 
C#-7~~~~~~-7~~~~~~-5---5---5---3~~~~~~-----------------------------| 
G#-----------------------------------------1-------3h5p3---1~~~~~~-| 
C#-------------------------------------3-------3-------------------| 

 

Guitar 2 
D#-----------------------------------------------------------------| 
A#-6~~~~~~-6~~~~~~-8---8---8---10~~~~~-15--15--15--15--15--15--15--| 
F#-x-------x-------x---x---x---x-------x---x---x---x---x---x---x---| 
C#-3~~~~~~-3~~~~~~-5---5---5---7~~~~~~-12--12--12--12--12--12--12--| 
G#-----------------------------------------------------------------| 
C#-----------------------------------------------------------------| 

 

Guitar 2 
D#-----------------------------------------------------------------| 
A#-10~~~~~-10~~~~~-8---8---8---6~~~~~~-----------------------------| 
F#-x-------x-------x---x---x---x-----------------------------------| 
C#-7~~~~~~-7~~~~~~-5---5---5---3~~~~~~-----------------------------| 
G#-----------------------------------------1-------3h5p3---1~~~~~~-| 
C#-------------------------------------3-------3-------------------| 

 

Guitar 2 
D#-----------------------------------------------------------------| 
A#-6~~~~~~-6~~~~~~-10~~~~~~~~~-8~~~~~~~~~~~~~~~~~~~~~~~~~~-9~~~~~~-| 
F#-x-------x-------x-----------x---------------------------x-------| 
C#-3~~~~~~-3~~~~~~-7~~~~~~~~~~-5~~~~~~~~~~~~~~~~~~~~~~~~~~-6~~~~~~-| 
G#-----------------------------------------------------------------| 
C#-----------------------------------------------------------------| 

 
 


Bridge 1 

Guitar 2 
D#-----------------------------------------------------------------| 
A#-10\~~~~---------------------------------------------------------| 
F#-x\--------------------------------------------------------------| 
C#-7\~~~~~-0---1~~~~~~-0---0---0---0---3---5---3---6---5---3---5---| 
G#---------0---1~~~~~~-0---0---0---0---3---5---3---6---5---3---5---| 
C#---------0---1~~~~~~-0---0---0---0---3---5---3---6---5---3---5---| 
Pm                         .   .   . 

 

Guitar 2 
D#-----------------------------------------------------------------| 
A#-----------------------------------------------------------------| 
F#-7\~~~~~---------------------------------------------------------| 
C#-7\~~~~~-0---1~~~~~~-0---0---0---0---3---3---6---6---5---5---3---| 
G#-5\~~~~~-0---1~~~~~~-0---0---0---0---3---3---6---6---5---5---3---| 
C#---------0---1~~~~~~-0---0---0---0---3---3---6---6---5---5---3---| 
Pm                         .   .   . 

 

Guitar 2 
D#-----------------------------------------------------------------| 
A#-14b~~~~~~~~-14b~~~~~~~~-14b~~~~~\~--------------------------17--| 
F#-----------------------------------------------------------------| 
C#-----------------------------------------------------------------| 
G#-----------------------------------------------------------------| 
C#-----------------------------------------------------------------| 

 

Guitar 2 
D#-13---/17-15~-13h15p13----13-13h15p13----------------------------| 
A#----17-----------------17-------------17-18-17h18p17-15--13------| 
F#-------------------------------------------------------------14--| 
C#-----------------------------------------------------------------| 
G#-----------------------------------------------------------------| 
C#-----------------------------------------------------------------| 

 
 


Verse 2 

Guitar 2 
D#------------------------------------------------------------------| 
A#-12\~~~~----------------------------------------------------------| 
F#-------------------------------------------------7\~~~~~----------| 
C#-------------------------------------------------7\~~~~~-0---1~~~-| 
G#-------------------------------------------------5\~~~~~-0---1~~~-| 
C#---------------------------------------------------------0---1~~~-| 

 

Guitar 2 
D#-----------------------------------------------------------------| 
A#-----------------------------------------------------------------| 
F#-----------------------------------------------------------------| 
C#-~~~-0---0---0---0---0---0---0---0-------------------------------| 
G#-~~~-0---0---0---0---0---0---0---0-------------------------------| 
C#-~~~-0---0---0---0---0---0---0---0---3---5---3---6---5---3---5---| 
Pm         .   .   .   .   . 

 

Guitar 2 
D#------------------------------------------------------------------| 
A#------------------------------------------------------------------| 
F#-7\~~~~~-----------------------------------------7\~~~~~----------| 
C#-7\~~~~~-0---0---0---0---0---0---0---0---0---0---7\~~~~~-0---1~~~-| 
G#-5\~~~~~-0---0---0---0---0---0---0---0---0---0---5\~~~~~-0---1~~~-| 
C#---------0---0---0---0---0---0---0---0---0---0-----------0---1~~~-| 
Pm         .   .   .   .   .   .   .   .   .   . 

 

Guitar 2 
D#-----------------------------------------------------------------| 
A#-----------------------------------------------------------------| 
F#-----------------------------------------------------------------| 
C#-~~~-0---0---0---0---0---0---0---0---3---3---6---6---5---5---3---| 
G#-~~~-0---0---0---0---0---0---0---0---3---3---6---6---5---5---3---| 
C#-~~~-0---0---0---0---0---0---0---0---3---3---6---6---5---5---3---| 
Pm         .   .   .   .   . 

 
 


Pre Chorus 

 

Rest 

 

Guitar 2 
D#-----------------------------------------------------------------| 
A#-----------------------------------------------------------------| 
F#-----------------------------------------------------------------| 
C#-----------------------------------------------------3~~~~-5~~~~-| 
G#-----------------------------------------------------3~~~~-5~~~~-| 
C#-----------------------------------------------------3~~~~-5~~~~-| 

 

Guitar 2 
D#-----------------------------------------------------------------| 
A#-----------------------------------------------------------------| 
F#-10--10--10--9---9---9---9---9---9-------9------/12--10--9-------| 
C#-x---x---x---x---x---x---x---x---x---0---x---0--/x---x---x---0---| 
G#-8---8---8---7---7---7---7---7---7---0---7---0--/10--8---7---0---| 
C#-------------------------------------0-------0---------------0---| 
Pm                                     .       .               . 

 

Guitar 2 
D#-----------------------------------------------------------------| 
A#-----------------------------------------------------------------| 
F#-10--10--10--9---9---9---9---9---9---10--10--11--11--12--12--13--| 
C#-x---x---x---x---x---x---x---x---x---x---x---x---x---x---x---x---| 
G#-8---8---8---7---7---7---7---7---7---8---8---9---9---10--10--11--| 
C#-----------------------------------------------------------------| 

 
 


Chorus 2 

Guitar 2 
D#-----------------------------------------------------------------| 
A#-10~~~~~-10~~~~~-8---8---8---6~~~~~~-----------------------------| 
F#-x-------x-------x---x---x---x-----------------------------------| 
C#-7~~~~~~-7~~~~~~-5---5---5---3~~~~~~-----------------------------| 
G#-----------------------------------------1-------3h5p3---1~~~~~~-| 
C#-------------------------------------3-------3-------------------| 

 

Guitar 2 
D#-----------------------------------------------------------------| 
A#-6~~~~~~-6~~~~~~-8---8---8---10~~~~~-15--15--15--15--15--15--15--| 
F#-x-------x-------x---x---x---x-------x---x---x---x---x---x---x---| 
C#-3~~~~~~-3~~~~~~-5---5---5---7~~~~~~-12--12--12--12--12--12--12--| 
G#-----------------------------------------------------------------| 
C#-----------------------------------------------------------------| 

 

Guitar 2 
D#-----------------------------------------------------------------| 
A#-10~~~~~-10~~~~~-8---8---8---6~~~~~~-----------------------------| 
F#-x-------x-------x---x---x---x-----------------------------------| 
C#-7~~~~~~-7~~~~~~-5---5---5---3~~~~~~-----------------------------| 
G#-----------------------------------------1-------3h5p3---1~~~~~~-| 
C#-------------------------------------3-------3-------------------| 

 

Guitar 2 
D#-----------------------------| 
A#-6~~~~~~-6~~~~~~-10--10--8---| 
F#-x-------x-------x---x---x---| 
C#-3~~~~~~-3~~~~~~-7---7---5---| 
G#-----------------------------| 
C#-----------------------------| 

 
 


Bridge 2 

Guitar 2 
D#-----------------------------------------------------------------| 
A#-8~~~~~~~~~~~~~~~~~~~~~~~~~~-8---8~~~~~~~~~~~~~~~~~~~~~~~~~~-----| 
F#-x---------------------------x---x-------------------------------| 
C#-5~~~~~~~~~~~~~~~~~~~~~~~~~~-5---5~~~~~~~~~~~~~~~~~~~~~~~~~~-----| 
G#-----------------------------------------------------------------| 
C#-----------------------------------------------------------------| 

 

Guitar 2 
D#-----------------------------------------------------------------| 
A#-15*~~~~-------------------------15~~~~~-------------------------| 
F#---------14*~~~~-------------------------14~~~~~-----------------| 
C#-----------------15*~~~~-14*~~~~-----------------15~~~~~-14~~~~~-| 
G#-----------------------------------------------------------------| 
C#-----------------------------------------------------------------| 

 
 


Guitar Solo 

Guitar 2 
D#-----------------------------------------------------------------| 
A#-----------------------------------------------------------------| 
F#--------------------------------------------/14~~-12h14p12----12-| 
C#-12~~b~~~r~~~b~~~r~~~b~~~r~~~b~~~r~~-12--14----------------15----| 
G#-----------------------------------------------------------------| 
C#-----------------------------------------------------------------| 

 

Guitar 2 
D#-----------------------------------------------------------------| 
A#-----------------------------------------------------------------| 
F#------------------------------------------/17~~-15h17p15-14--15--| 
C#-14~~b~~~r~~~b~~~r~~~b~r~b~r~----------14------------------------| 
G#------------------------------14h15h17---------------------------| 
C#-----------------------------------------------------------------| 

 

Guitar 2 
D#-----------------------------------------------------------------| 
A#-----------------------------------------------------------------| 
F#-12--14--10--12--9---10--7---9---5---7---3---5---2h3p2p0-2---3---| 
C#-----------------------------------------------------------------| 
G#-----------------------------------------------------------------| 
C#-----------------------------------------------------------------| 

 

Guitar 2 
D#--------------------------12-13-15-13-12-13-12-------------------| 
A#-----------------------------------------------15-13-12-13-10-13-| 
F#-7~~/9~~-7-9-10~-9-10-12~----------------------------------------| 
C#-----------------------------------------------------------------| 
G#-----------------------------------------------------------------| 
C#-----------------------------------------------------------------| 

 

Guitar 2 
D#-----------------------------------------------------------------| 
A#-15\~~~~---------------------------------------------------------| 
F#-----------------------------------------------------------------| 
C#-----------------------------8---0---10--0---7---0---7---7---8---| 
G#-----------------------------8---0---10--0---7---0---7---7---8---| 
C#-----------------------------8---0---10--0---7---0---7---7---8---| 
Pm                                 .       .       . 

 

Guitar 2 
D#-----------------------------------------------------------------| 
A#-----------------------------------------------------------------| 
F#-7---8---7~~~~~~-------------------------------------------------| 
C#-7---8---7~~~~~~-0---0---0---8---0---8---0---8---10~~~~~~~~~~~~~-| 
G#-5---6---5~~~~~~-0---0---0---8---0---8---0---8---10~~~~~~~~~~~~~-| 
C#-----------------0---0---0---8---0---8---0---8---10~~~~~~~~~~~~~-| 
Pm                 .   .   .       .       . 

 

Guitar 2 
D#-----------------------------------------------------------------| 
A#-----------------------------------------------------------------| 
F#-7---8---7~~~~~~-------------------------------------------------| 
C#-7---8---7~~~~~~-0---0---0---8---0---10--0---7---0---7---7---8---| 
G#-5---6---5~~~~~~-0---0---0---8---0---10--0---7---0---7---7---8---| 
C#-----------------0---0---0---8---0---10--0---7---0---7---7---8---| 
Pm                 .   .   .       .       .       . 

 

Guitar 2 
D#-----------------------------------------------------------------| 
A#-----------------------------------------------------------------| 
F#-7---8---7~~~~~~-------------------------------------------------| 
C#-7---8---7~~~~~~-0---0---0---8---0---8---0---8---10~~~~~~~~~~~~~-| 
G#-5---6---5~~~~~~-0---0---0---8---0---8---0---8---10~~~~~~~~~~~~~-| 
C#-----------------0---0---0---8---0---8---0---8---10~~~~~~~~~~~~~-| 
Pm                 .   .   .       .       . 

 
 


Interlude 

Guitar 2 
D#-----------------------------------------------------------------| 
A#-----------------------------------------------------------------| 
F#-------------10~~~~~~~~~~~~~~~~~~~~~~~~~~~~~~~~~-----------------| 
C#-8~~~~~~~~~~-10~~~~~~~~~~~~~~~~~~~~~~~~~~~~~~~~~-8---10--10--8---| 
G#-8~~~~~~~~~~-8~~~~~~~~~~~~~~~~~~~~~~~~~~~~~~~~~~-8---10--10--8---| 
C#-8~~~~~~~~~~-8~~~~~~~~~~~~~~~~~~~~~~~~~~~~~~~~~~-8---10--10--8---| 

 

Guitar 2 
D#-----------------------------------------------------------------| 
A#-------------------------3~~~~~~~~~~~~~~~~~~~~~~~~~~~~~~~~~~~~~~-| 
F#-------------------------2~~~~~~~~~~~~~~~~~~~~~~~~~~~~~~~~~~~~~~-| 
C#-7~~~~~~~~~~-0~~~~~~~~~~-0~~~~~~~~~~~~~~~~~~~~~~~~~~~~~~~~~~~~~~-| 
G#-7~~~~~~~~~~-0~~~~~~~~~~-0~~~~~~~~~~~~~~~~~~~~~~~~~~~~~~~~~~~~~~-| 
C#-7~~~~~~~~~~-0~~~~~~~~~~-0~~~~~~~~~~~~~~~~~~~~~~~~~~~~~~~~~~~~~~-| 

 

Guitar 2 
D#-----------------------------------------------------------------| 
A#-----------------------------------------------------------------| 
F#-10~-10~~~~~~~~~~~~~~~~~~~~~~~~~~~~~~~~~~~~~~~~~-----------------| 
C#-10~~~~~-10~-8~~~~~~~~~~~~~~~~~~~~~~~~~~~~~~~~~~-8---10--10--8---| 
G#-8~~~~~~~~~~~~~~-8~~~~~~~~~~~~~~~~~~~~~~~~~~~~~~-8---10--10--8---| 
C#-8~~~~~~~~~~~~~~~~~~~~~~~~~~~~~~~~~~~~~~~~~~~~~~-8---10--10--8---| 

 

Guitar 2 
D#-----------------------------------------------------------------| 
A#-----------------------------------------------------------------| 
F#---------------------------------2---3---3---5---5---7---7---8---| 
C#-7~~~~~~~~~~~~~~~~~~~~~~~~~~~~~~-x---x---x---x---x---x---x---x---| 
G#-7~~~~~~~~~~~~~~~~~~~~~~~~~~~~~~-0---1---1---3---3---5---5---6---| 
C#-7~~~~~~~~~~~~~~~~~~~~~~~~~~~~~~---------------------------------| 

 
 


Bridge 3 

Guitar 2 
D#------------------------------------------------------------------| 
A#------------------------------------------------------------------| 
F#-7\~~~~~-----------------------------------------7\~~~~~----------| 
C#-7\~~~~~-0---0---0---0---0---0---0---0---0---0---7\~~~~~-0---1~~~-| 
G#-5\~~~~~-0---0---0---0---0---0---0---0---0---0---5\~~~~~-0---1~~~-| 
C#---------0---0---0---0---0---0---0---0---0---0-----------0---1~~~-| 
Pm         .   .   .   .   .   .   .   .   .   . 

 

Guitar 2 
D#-----------------------------------------------------------------| 
A#-----------------------------------------------------------------| 
F#-----------------------------------------------------------------| 
C#-~~~-0---0---0---0---0---0---0---0-------------------------------| 
G#-~~~-0---0---0---0---0---0---0---0-------------------------------| 
C#-~~~-0---0---0---0---0---0---0---0---3---5---3---6---5---3---5---| 
Pm         .   .   .   .   . 

 

Guitar 2 
D#-----------------------------------------------------------------| 
A#-----------------------------------------------------------------| 
F#-7\~~~~~-----------------------------------------7\~~~~~---------| 
C#-7\~~~~~-0---0---0---0---0---0---0---0---0---0---7\~~~~~-0---0---| 
G#-5\~~~~~-0---0---0---0---0---0---0---0---0---0---5\~~~~~-0---0---| 
C#---------0---0---0---0---0---0---0---0---0---0-----------0---0---| 
Pm         .   .   .   .   .   .   .   .   .   . 

 

Guitar 2 
D#-----------------------------------------------------------------| 
A#-----------------------------------------------------------------| 
F#-7-------------------------------2---3---3---5---5---7---7---8---| 
C#-7-------------------------------x---x---x---x---x---x---x---x---| 
G#-5-------------------------------0---1---1---3---3---5---5---6---| 
C#-----------------------------------------------------------------| 

 
 


Chorus 3 

Guitar 2 
D#-----------------------------------------------------------------| 
A#-10~~~~~-10~~~~~-8---8---8---6~~~~~~-----------------------------| 
F#-x-------x-------x---x---x---x-----------------------------------| 
C#-7~~~~~~-7~~~~~~-5---5---5---3~~~~~~-----------------------------| 
G#-----------------------------------------1-------3h5p3---1~~~~~~-| 
C#-------------------------------------3-------3-------------------| 

 

Guitar 2 
D#-----------------------------------------------------------------| 
A#-6~~~~~~-6~~~~~~-8---8---8---10~~~~~-15--15--15--15--15--15--15--| 
F#-x-------x-------x---x---x---x-------x---x---x---x---x---x---x---| 
C#-3~~~~~~-3~~~~~~-5---5---5---7~~~~~~-12--12--12--12--12--12--12--| 
G#-----------------------------------------------------------------| 
C#-----------------------------------------------------------------| 

 

Guitar 2 
D#-----------------------------------------------------------------| 
A#-10~~~~~-10~~~~~-8---8---8---6~~~~~~-----------------------------| 
F#-x-------x-------x---x---x---x-----------------------------------| 
C#-7~~~~~~-7~~~~~~-5---5---5---3~~~~~~-----------------------------| 
G#-----------------------------------------1-------3h5p3---1~~~~~~-| 
C#-------------------------------------3-------3-------------------| 

 

Guitar 2 
D#-----------------------------------------------------------------| 
A#-6~~~~~~-6~~~~~~-8---8---8---10~~~~~-15--15--15--15--15--15--15--| 
F#-x-------x-------x---x---x---x-------x---x---x---x---x---x---x---| 
C#-3~~~~~~-3~~~~~~-5---5---5---7~~~~~~-12--12--12--12--12--12--12--| 
G#-----------------------------------------------------------------| 
C#-----------------------------------------------------------------| 

 

Guitar 2 
D#-----------------------------------------------------------------| 
A#-18~~~~~-18~~~~~-17~~b~~~r~~-15~~~~~~~~~~~~~~~~~-15--------------| 
F#-----------------------------------------------------17--15~~~~~-| 
C#-----------------------------------------------------------------| 
G#-----------------------------------------------------------------| 
C#-----------------------------------------------------------------| 

 

Guitar 2 
D#-----------------------------------------------------------------| 
A#-----------------17--17--17--18~~~~~~~~~~~~~~~~~-18--17--17--18--| 
F#-15~~~~~-15~~~~~-------------------------------------------------| 
C#-----------------------------------------------------------------| 
G#-----------------------------------------------------------------| 
C#-----------------------------------------------------------------| 

 

Guitar 2 
D#-----------------------------------------------------------------| 
A#-18~~~~~-18~~~~~-17~~b~~~r~~-15~~~~~~~~~~~~~~~~~-15--------------| 
F#-----------------------------------------------------17--15~~~~~-| 
C#-----------------------------------------------------------------| 
G#-----------------------------------------------------------------| 
C#-----------------------------------------------------------------| 

 

Guitar 2 
D#-----------------------------| 
A#-----------------15--15--13--| 
F#-15~~~~~-15~~~~~-------------| 
C#-----------------------------| 
G#-----------------------------| 
C#-----------------------------| 

 

Guitar 2 
D#-----------------------------------------------------------------| 
A#-13~~~~~~~~~~~~~~~~~~~~~~~~~-13--13~~~~~~~~~~~~~~~~~~~~~-14~~~~~-| 
F#-----------------------------------------------------------------| 
C#-----------------------------------------------------------------| 
G#-----------------------------------------------------------------| 
C#-----------------------------------------------------------------| 

 
 


Outro 

Guitar 2 
D#-----------------------------------------------------------------| 
A#-14b~~~~~~~~-14b~~~~~~~~-14b~~~~~\~--------------------------17--| 
F#-----------------------------------------------------------------| 
C#-----------------------------------------------------------------| 
G#-----------------------------------------------------------------| 
C#-----------------------------------------------------------------| 

 

Guitar 2 
D#-13---/15-13~---------18~~-17h18p17-15--17--15h17p15-13--15--17--| 
A#----17--------17-------------------------------------------------| 
F#------------------17---------------------------------------------| 
C#-----------------------------------------------------------------| 
G#-----------------------------------------------------------------| 
C#-----------------------------------------------------------------| 

 

Guitar 2 
D#-----------------------------------------------------------------| 
A#-14b~~~~~~~~-14b~~~~~~~~-14b~~~~~\~--------------------------17--| 
F#-----------------------------------------------------------------| 
C#-----------------------------------------------------------------| 
G#-----------------------------------------------------------------| 
C#-----------------------------------------------------------------| 

 

Guitar 2 
D#-13---/17-15~-13h15p13----13-13h15p13----------------------------| 
A#----17-----------------17-------------17-18-17h18p17-15--13--15--| 
F#-----------------------------------------------------------------| 
C#-----------------------------------------------------------------| 
G#-----------------------------------------------------------------| 
C#-----------------------------------------------------------------| 

  
		  

See also:

tabs Cky - 96 Quiet Bitter Beings tabs Dio - Don't Talk To Strangers tabs Iron Butterfly - In-A-Gadda-De-Vida tabs Interpol - Obstacle (ver. 1) tabs Black Crowes - Jealous Again tabs Cream - Cream - Sunshine Of Your Love
e-chords

Other versions:

tabs Stone Sour - Absolute Zero
auto scroll beats size up size down change color hide chords drawings
tab show chords e-chords YouTube Clip e-chords hide all tabs e-chords go to top tab

share