Spitz

Indigo Chiheisen

Spitz

tabs nolevel nolevel

by  CARLLUZ

save to print version add songbook text version e-mail correct tuner
chordsukulelecavacokeyboardtabbassdrumsharmonicaflute Guitar Pro
close

there isn't a video lesson for this song

chords

Indigo Chiheisen

	  		Indigo Chiheisen 
by Spitz 
transcribed by Robert Goodwin 


Intro 
E---------------------------------------------------------------| 
B-3p2-----3p2-----3p2-----3p2-----3/5-5-5-5-5--5-5-5/7-7-7-7-8--| 
G-----2-------2-------2-------2---------------------------------| 
D-------2-------2-------2-------2-------------------------------| 
A---------------------------------------------------------------| 
E---------------------------------------------------------------| 
  

Verse ("Kimi to chiheisen made...") 
E-----2-------3-------0-----------------| 
B-------3-------3-------3-----2h3p2-----|  <---- 
G---2-------------------------------2---|  repeat as necessary 
D-0---------2-------0-------2---------2-| 
A---------3-------2-------0-------------| 
E---------------------------------------| 
  

Bridge ("Gyakufuu ni mukai..")                    ("bokutachi wa...") 
                E-0-----0-----      a slide down     
(strum chords)  B---3-----3---       the second 
G     D  Dsus2  G-----2-----2-  G  string ending   D   C  Bm  Bmsus4 Bm Bmsus4 
                D-------------       on a high D  
                A-------------      or something of 
                E-------------       that nature 


Chorus ("Kooritsukisou demo...")                       ("...ano buruu...") 
          Em          F#m           G                        Asus4  A 
E-7p5------------------5------------7---------|                 
B-----8-7-7/8---------------------------------|   <----      
G---------------------------------------------|   repeat        
D---------------------------------------------|   three 
A---------------------------------------------|   times 
E---------------------------------------------| 


Last Verse      
  (barre 10th fret with pinky) 
E------10--------10---|   
B-10--------10--------|   <---- 
G----7----7----7----7-|   repeat eight times 
A---------------------| 
E---------------------| 


Ending 
E----------10--------10--------10--------| 
B----10--------10--------10--------10----| 
G-------12--------12--------12--------12-| 
D-12-------------------------------------| 
A----------------------------------------| 
E----------------------------------------| 

E-10--------10--------10-----------------------| 
B-----10--------10--------10----10-------10----| 
G--------12--------12--------12----12-------12-| 
D-------------------------------------12-------| 
A----------------------------------------------| 
E----------------------------------------------| 
		  

Full key step upFull key step up
Half key step upHalf key step up
Half key step downHalf key step down
Full key step downFull key step down
hide glossary

See also:

tabs Yamazaki Masayoshi - One More Time, One More Chance tabs Spitz - Indigo Chiheisen tabs Hikaru Utada - Sanctuary Remix tabs Bamboo - Kailan tabs Mami Kawada - Joint tabs Akb48 - Aitakatta
e-chords

Other versions:

tabs Spitz - Indigo Chiheisen
auto scroll beats size up size down change color hide chords drawings
tab show chords e-chords YouTube Clip e-chords hide all tabs e-chords go to top tab

share with facebook