Spitz

Hechima No Hana

Spitz

tabs nolevel nolevel

by  CARLLUZ

save to print version add songbook text version e-mail correct tuner
chordsukulelecavacokeyboardtabbassdrumsharmonicaflute Guitar Pro
close

there isn't a video lesson for this song

chords

Hechima No Hana

	  		


Verse ("Futari no yume...") 
E-------0-------0---0------------------------7-----------0-----| 
B-----0---0---8---0---0---------6--------------8-------0---0---| 
G---0-------0-----------0-----5---5--------7-----7---0-------0-| 
D---------------------------7-------7----9---------------------| 
A-------------------------5-----------10-----------7-----------| 
E-8------------------------------------------------------------| 

E-------8-----------5------------------------------------7-----| 
B-----8---8-----------6---8-6---6-----------6--------------8---| 
G---9-------9-----5-----5-----5---5-------5---5--------7-----7-| 
D---------------7-------------------7---7-------7----9---------| 
A-------------8-----------------------5-----------10-----------| 
E-0------------------------------------------------------------| 

E-------0-----------5-----------------| 
B-----0---0-----------6---------6-----| 
G---0-------0-----5-----5-----5---5---| 
D---------------7-----------7-------7-| 
A-------------8-----------5-----------| 
E-8-----------------------------------| 

Verse Ending 1 
E-8-----5-----------4------------7-----| 
B---6-----6-------6---6------------8---| 
G-----5-----5---5-------5------7-----7-| 
D----------------------------9---------| 
A-------------5-----------10-----------| 
E--------------------------------------| 

Verse Ending 2 
E--------7-----------------3-----------| 
B----------8-------1-3-1-----3-1-3-1---| 
G------7-----7---0-------0-----------0-| 
D----9---------------------------------| 
A-10-----------3-----------------------| 
E--------------------------------------| 


Chorus ("Sabishii namidame ni utsuru no wa...") 
E-----0-3-----1-----3-1---------------------0-----| 
B---1-----3-1---1-------1-------0---------1---1---| 
G-2---------------2-----------0---0-----0-------0-| 
D---------------------------0-------0-2-----------| 
A-------------------------2-----------------------| 
E-------------------------------------------------| 

E-----0-3-----1-----3-1---------------------1h3p1-0---| 
B---1-----3-1---1-------1-------0---------1---------1-| 
G-2---------------2-----------0---0-----0-------------| 
D---------------------------0-------0-2---------------| 
A-------------------------2---------------------------| 
E-----------------------------------------------------| 


Chorus Cap ("Itsu no toki mo futari de") 
E-----0-3-----1-----3-1---------| 
B---1-----3-1---1-------1-------| 
G-2---------------2-------0-----| 
D-------------------------0-----| 
A-------------------------------| 
E-------------------------------| 
		  

See also:

tabs Yamazaki Masayoshi - One More Time, One More Chance tabs Spitz - Indigo Chiheisen tabs Hikaru Utada - Sanctuary Remix tabs Bamboo - Kailan tabs Mami Kawada - Joint tabs Akb48 - Aitakatta
e-chords

Other versions:

tabs Spitz - Hechima No Hana
auto scroll beats size up size down change color hide chords drawings
tab show chords e-chords YouTube Clip e-chords hide all tabs e-chords go to top tab

share with facebook