Sonic Team

Sonic Tab

Sonic Team

Difficulty: nolevelnolevel

by deivcavalcanti

tuner correct add songbook print version text version save to e-mail
chordsukulelecavacokeyboardtabbassdrumsharmonicsflute Guitar Pro
close

there isn't a video lesson for this song

request
chords

Sonic

Key:  C More
Sonic Key GG
Sonic Key G#G#
Sonic Key AA
Sonic Key A#A#(one step down)
Sonic Key BB(half step down)
Sonic Key CC(original key)
Sonic Key C#C#(half step up)
Sonic Key DD(one step up)
Sonic Key D#D#
Sonic Key EE
Sonic Key FF
Sonic Key F#F#
  		E|--------------------------------------------------------| 
B|--------------------------------------------------------| 
G|--------------------------------------------------------| 
D|--9--7--9--7--9-7-10--9--7-----7--9--10--7--9--10--10--9| 
A|--------------------------------------------------------| 
E|--------------------------------------------------------| 

E|--8-5---8-7-8-7---------12-10----8-7-8-7--| 
B|----------------8----10------------------8| 
G|------------------------------------------| 
D|------------------------------------------| 
A|------------------------------------------| 
E|------------------------------------------| 

E|--8-5---8-7-8-7---------5---5-3---5-3-----| 
B|----------------8-----6---6-----------1---| 
G|------------------------------------------| 
D|------------------------------------------| 
A|------------------------------------------| 
E|------------------------------------------| 

E|--8-5---8-7-8-7---------12-10----8-7-8-7-3| 
B|----------------8----10-------------------| 
G|------------------------------------------| 
D|------------------------------------------| 
A|------------------------------------------| 
E|------------------------------------------| 

E|--8-5---8-7-8-7-------5-5---5-3---5-3-----0-| 
B|----------------8---------6-----------1-1--3| 
G|--------------------------------------------| 
D|--------------------------------------------| 
A|--------------------------------------------| 
E|--------------------------------------------| 

E|------0----------------------| 
B|----1-----------5-4-------4-3| 
G|--2---------5-5---------5----| 
D|-----------------------------| 
A|-----------------------------| 
E|-----------------------------| 
	  

Search Paypal
auto scroll beats size up size down change color hide chords drawings
tab show chords e-chords YouTube Clip e-chords hide all tabs e-chords go to top tab

share with facebook