Sonic Team

Casino Night Zone Tab

Sonic Team

Difficulty: nolevelnolevel

by brunblazkowski

tuner correct add songbook print version text version save to e-mail
chordsukulelecavacokeyboardtabbassdrumsharmonicsflute Guitar Pro
close

there isn't a video lesson for this song

request
chords

Casino Night Zone

  		E|----------|----11--------14--13--11--------|-----------------------0---0--| 
B|----------|----13----13--------------13----|--------11-----------------0--| 
G|----------|--------------14--13--12--------|----12------13--12------------| 
D|----------|----------13--------------13----|----12--12--12--12------------| 
A|----------|--------------------------------|-----------------------12-----| 
E|----------|--------------------------------|------------------------------| 

E|---0----------0--1--0---|---4--4--0------------0--0-| 
B|---1----------1--3--1---|---5--5--0------------0--0-| 
G|------------------------|---------------------------| 
D|------------------------|---------------------------| 
A|------------------------|---------------------------| 
E|------------------------|---------------------------| 

E|---5--5---------------------|------------------------|----0--1--0--4--4--0-0----| 
B|---5--5--5-------------0----|---4--3--1--------------|----1--3--1--5--5--0-0----| 
G|---------5-5--------5--7--5-|---5--3--1--------------|--------------------------| 
D|-----------7--------7-----7-|------------------------|--------------------------| 
A|----------------------------|------------------------|--------------------------| 
E|----------------------------|------------------------|--------------------------| 

E|----5----7--5-8-----------|--------------------------| 
B|----5----8--5-10------10--|--8-----------------0-----| 
G|----------------------10--|--9----9------------------| 
D|--------------------------|-------10----100----12----| 
A|--------------------------|-------------122----------| 
E|--------------------------|--------------------------| 

E|----------------------------------|-----------------------| 
B|-------------------8--------------|--5-----------5--6--5--| 
G|--8-----10--8--10---------------5-|--5-----------5--7--5--| 
D|--10----10--10-10--9---------7--5-|-----------------------| 
A|--------------------------10-7----|-----------------------| 
E|--------------------------10------|-----------------------| 

E|--4--4--0-----------0--0-|--5--5----------------------|-----------------------| 
B|--5--5--------------0--0-|--5--5--5--------------0----|--4--3--1--------------| 
G|--------4----------------|--------5-5---------5--7--5-|--5--3--1--------------| 
D|-------------------------|----------7---------7-----7-|-----------------------| 
A|-------------------------|----------------------------|-----------------------| 
E|-------------------------|----------------------------|-----------------------| 

E|----0--1--0--4--4--0------|-----5----7--5--8------------| 
B|----1--3--1--5--5--0------|-----5----8--5--10------10---| 
G|--------------------------|------------------------10---| 
D|--------------------------|-----------------------------| 
A|--------------------------|-----------------------------| 
E|--------------------------|-----------------------------| 

E|-----------------------------|------------------------------| 
B|---8----------------0---10---|---8-----------------0---10---| 
G|---9----9---------------10---|---9----9----------------10---| 
D|--------10----10----12-------|--------10-----10----12-------| 
A|--------------12-------------|---------------12-------------| 
E|-----------------------------|------------------------------| 

E|-------------------------------|--------------------| 
B|---8---------------------------|--------------------| 
G|---9----9----------------------|--------------------| 
D|--------10----10----12--12--10-|--------------------| 
A|--------------12---------------|--------------------| 
E|--------------------13--13--12-|--------------------| 

E|----11--------14--13--11--------|------------------------0---0--| 
B|----13----13--------------13----|--------111-----------------0--| 
G|--------------14--13--12--------|----12-------13--12------------| 
D|----------13--------------13----|----12--112--12--12------------| 
A|--------------------------------|------------------------12-----| 
E|--------------------------------|-------------------------------| 

E|---0----------0--1--0---|---4--4--0------------0--0-| 
B|---1----------1--3--1---|---5--5--0------------0--0-| 
G|------------------------|---------------------------| 
D|------------------------|---------------------------| 
A|------------------------|---------------------------| 
E|------------------------|---------------------------| 

E|---5--5---------------------|------------------------|----0--1--0--4--4--0-0----| 
B|---5--5--5-------------0----|---4--3--1--------------|----1--3--1--5--5--0-0----| 
G|---------5-5--------5--7--5-|---5--3--1--------------|--------------------------| 
D|-----------7--------7-----7-|------------------------|--------------------------| 
A|----------------------------|------------------------|--------------------------| 
E|----------------------------|------------------------|--------------------------| 

E|----5----7--5-8-----------|--------------------------| 
B|----5----8--5-10------10--|--8-----------------0-----| 
G|----------------------10--|--9----9------------------| 
D|--------------------------|-------10----10-----12----| 
A|--------------------------|-------------12-----------| 
E|--------------------------|--------------------------| 

E|----------------------------------|-----------------------| 
B|-------------------8--------------|--5-----------5--6--5--| 
G|--8-----10--8--10---------------5-|--5-----------5--7--5--| 
D|--10----10--10-10--9---------7--5-|-----------------------| 
A|--------------------------10-7----|-----------------------| 
E|--------------------------10------|-----------------------| 

E|--4--4--0-----------0--0-|--5--5----------------------|-----------------------| 
B|--5--5--------------0--0-|--5--5--5--------------0----|--4--3--1--------------| 
G|--------4----------------|--------5-5---------5--7--5-|--5--3--1--------------| 
D|-------------------------|----------7---------7-----7-|-----------------------| 
A|-------------------------|----------------------------|-----------------------| 
E|-------------------------|----------------------------|-----------------------| 

E|----0--1--0--4--4--0------|-----5----7--5--8------------| 
B|----1--3--1--5--5--0------|-----5----8--5--10------10---| 
G|--------------------------|------------------------10---| 
D|--------------------------|-----------------------------| 
A|--------------------------|-----------------------------| 
E|--------------------------|-----------------------------| 

E|-----------------------------|------------------------------| 
B|---8----------------0---10---|---8-----------------0---10---| 
G|---9----9---------------10---|---9----9----------------10---| 
D|--------10----10----12-------|--------10-----10----12-------| 
A|--------------12-------------|---------------12-------------| 
E|-----------------------------|------------------------------| 

E|-------------------------------|---|---| 
B|---8---------------------------|---|---| 
G|---9----9----------------------|---|---| 
D|--------10----10----12--12--10-|---|---| 
A|--------------12---------------|---|---| 
E|--------------------13--13--12-|---|---| 

(guitar 2) 

E|----12----12---12--13--12-----|----10----110---10--12--10-----| 
B|----13----13---13--15--13-----|----12----112---12--13--12-----| 
G|------------------------------|-------------------------------| 
D|------------------------------|-------------------------------| 
A|------------------------------|-------------------------------| 
E|------------------------------|-------------------------------| 

E|------------------------------|-------------------------------| 
B|----13----13---13--15--13-----|----13----113---13--15--13-----| 
G|----14----14---14--16--14-----|----13----113---13--15--13-----| 
D|------------------------------|-------------------------------| 
A|------------------------------|-------------------------------| 
E|------------------------------|-------------------------------| 

E|--12--------10----12--10--|------------13---------|--------------------------| 
B|--13--------12----13--12--|--13--------13---------|----------------10----10--| 
G|--------------------------|--14-------------------|----12----12----10----10--| 
D|--------------------------|-----------------------|----14----14--------------| 
A|--------------------------|-----------------------|--------------------------| 
E|--------------------------|-----------------------|--------------------------| 

E|------------------------|-----------------------------|-------------------| 
B|----8----8----10----10--|----8----8----10---10--10--8-|-------------------| 
G|----9----9----10----10--|----9----9----10---10--10--9-|-------------------| 
D|------------------------|-----------------------------|-------------------| 
A|------------------------|-----------------------------|-------------------| 
E|------------------------|-----------------------------|-------------------| 

E|------------------|------------------|-----12----12---12--13--12-----| 
B|------------------|------------------|-----13----13---13--15--13-----| 
G|------------------|------------------|-------------------------------| 
D|------------------|------------------|-------------------------------| 
A|------------------|------------------|-------------------------------| 
E|------------------|------------------|-------------------------------| 

E|----10----10---10--12--10-----|-------------------------------| 
B|----12----12---12--13--12-----|----13----113---13--15--13-----| 
G|------------------------------|----14----114---14--16--14-----| 
D|------------------------------|-------------------------------| 
A|------------------------------|-------------------------------| 
E|------------------------------|-------------------------------| 

E|------------------------------12-|-----------10----12--10-----| 
B|----13----13---13--15--13-----13-|-----------12----13--12--13-| 
G|----13----13---13--15--13--------|-------------------------14-| 
D|---------------------------------|----------------------------| 
A|---------------------------------|----------------------------| 
E|---------------------------------|----------------------------| 

E|----------13---------|----------------------------|-------------------------| 
B|----------13---------|----------------10-----10---|----8----8----10----10---| 
G|---------------------|----12----12----10-----10---|----9----9----10----10---| 
D|---------------------|----14----14----------------|-------------------------| 
A|---------------------|----------------------------|-------------------------| 
E|---------------------|----------------------------|-------------------------| 

E|-----------------------------|-------------------|------------------| 
B|----8----8----10--10--10--8--|-------------------|------------------| 
G|----9----9----10--10--10--9--|-------------------|------------------| 
D|-----------------------------|-------------------|------------------| 
A|-----------------------------|-------------------|------------------| 
E|-----------------------------|-------------------|------------------| 

(guitar 3) 

E|----------|----3----3----3----3--|----1--1--1--1---------| 
B|----------|----4----4----4----4--|----3--3--3--3---------| 
G|----------|----------------------|-----------------------| 
D|----------|----------------------|-----------------------| 
A|----------|----------------------|-----------------------| 
E|----------|----------------------|-----------------------| 

E|----3----3---0---0----0--0--|----0----0----0---4----4--4-| 
B|----5----5---8---8----8--8--|----9----9----9---5----5--5-| 
G|----0----0---0---0----0--0--|----------------------------| 
D|----2----2------------------|----6----6----6---6----6--6-| 
A|-------------7---7----7--7--|----7----7----7---7----7--7-| 
E|----------------------------|----------------------------| 

E|-----5---5---5---5----5--5-|----4----4---44---4----4--4--| 
B|-----5---5---5---5----5--5-|----4----4---44---4----4--4--| 
G|---------------------------|-----------------------------| 
D|-----7---7---7---7----7--7-|----6----6---66---6----6--6--| 
A|-----7---7---7---7----7--7-|----6----6---66---6----6--6--| 
E|---------------------------|-----------------------------| 

E|----0----0---4---4----4--4-|-----5---5---55---5----5--5-|----0----0----5----5--| 
B|----8----8---5---5----5--5-|-----5---5---66---6----6--6-|----8----8----6----6--| 
G|----0----0-----------------|----------------------------|----0----0------------| 
D|-------------6---6----6--6-|-----7---7---77---7----7--7-|--------------7----7--| 
A|----7----7---7---7----7--7-|-----7---7---88---8----8--8-|----7----7----8----8--| 
E|---------------------------|----------------------------|----------------------| 

E|--8-----8---8---7---------|-------------------|------------------| 
B|--9-----9---9---8---------|-------------------|------------------| 
G|----------------0---------|-------------------|------------------| 
D|--10----10--10--9---------|-------------------|------------------| 
A|--11----11--11------------|-------------------|------------------| 
E|--------------------------|-------------------|------------------| 

E|----3----3----3----3---|----1--1--1--1-----------|----3----3---0---0----0--0-| 
B|----4----4----4----4---|----3--3--3--3-----------|----5----5---8---8----8--8-| 
G|-----------------------|-------------------------|----0----0---0---0----0--0-| 
D|-----------------------|-------------------------|----2----2-----------------| 
A|-----------------------|-------------------------|-------------7---7----7--7-| 
E|-----------------------|-------------------------|---------------------------| 

E|-----0---0---0---4----4--4-|----5----5---55---5----5--5--| 
B|-----9---9---9---5----5--5-|----5----5---55---5----5--5--| 
G|---------------------------|-----------------------------| 
D|-----6---6---6---6----6--6-|----7----7---77---7----7--7--| 
A|-----7---7---7---7----7--7-|----7----7---77---7----7--7--| 
E|---------------------------|-----------------------------| 

E|----4----4---4---4----4--4-|-----0---0---44---4----4--4-| 
B|----4----4---4---4----4--4-|-----8---8---55---5----5--5-| 
G|---------------------------|-----0---0------------------| 
D|----6----6---6---6----6--6-|-------------66---6----6--6-| 
A|----6----6---6---6----6--6-|-----7---7---77---7----7--7-| 
E|---------------------------|----------------------------| 

E|----5----5---5---5----5--5--|----0----0-----5----5--8--| 
B|----5----5---6---6----6--6--|----8----8-----6----6--9--| 
G|----------------------------|----0----0----------------| 
D|----7----7---7---7----7--7--|---------------7----7--10-| 
A|----7----7---8---8----8--8--|----7----7-----8----8--11-| 
E|----------------------------|--------------------------| 

E|-------8---8---7---------|-------------------|------------------| 
B|-------9---9---8---------|-------------------|------------------| 
G|---------------0---------|-------------------|------------------| 
D|-------10--10--9---------|-------------------|------------------| 
A|-------11--11------------|-------------------|------------------| 
E|-------------------------|-------------------|------------------| 
	  

Search Paypal
auto scroll beats size up size down change color hide chords drawings
tab show chords e-chords YouTube Clip e-chords hide all tabs e-chords go to top tab

share with facebook