Sneaker pimps

Post-modern sleaze

Sneaker pimps

tabs Beginner beginner

by  DAVIDEDANTE123

save to print version add songbook text version e-mail correct tuner
chordsukulelecavacokeyboardtabbassdrumsharmonicaflute Guitar Pro
close

there isn't a video lesson for this song

chords

Post-modern sleaze

	  		Post-modern sleaze - Sneaker pimps 
Becoming X 


Intro: 

{0:00} 
e|-------------------------|-------------------------| 
B|-------------------------|-------------------------| 
G|------5------0----3h2-0--|-----5-----0----3h2-0----| 
D|------5------0----3------|-----5--1b------3--------| 
A|--3-------3-----0--------|-3-----------0-----------| 
E|-------------------------|-------------------------| 


|--------------------------|-------------------------| 
|--------------------------|-------------------------| 
|-------5------0----3h2-0--|---------x-3/5----3h2-0--| 
|-------5------0----3------|----3-h5-x----5---3----0-| 
|---3-------3-----0--------|-3--------------3--------| 
|--------------------------|-------------------------| 


{0:13} 
e|-------------------------|-------------------------| 
B|-------------------------|-------------------------| 
G|--------5-3/5-----3h2----|------5-3/5---0--3h2-----| 
D|---3-h5-----------3------|-3-h5-------1b---3---0---| 
A|-----------------------3-|-----------------------3-| 
E|-------------------------|-------------------------| 

{0:20} 
|--------------------------|-------------------------| 
|--------------------------|-------------------------| 
|-------5-3/5---0--3h2-----|--------5-3/5------3h2---| 
|--3-h5------------3---0---|---3-h5------------3-----| 
|-------------3----------3-|---------------3---------| 
|--------------------------|-------------------------| 


main riff 
e|-------------------------| 
B|-------------------------| 
G|---------5-3/5-----------| 
D|----3-h5-----------------| 
A|-------------------------| x4 
E|-------------------------| 


Verse 1: 
(play main riff x8) 

e|-------------------------| 
B|-------------------------| 
G|---------5-3/5-----------| 
D|----3-h5-----------------| 
A|-------------------------| x8 
E|-------------------------| 

{1:00} 
e|--------------------0----| 
B|----------------------1--| 
G|---------5-3/5-----------| (use this variation 
D|----3-h5-----------------|  the 6th time you 
A|-------------------------|  repeat the main riff) 
E|-------------------------| 


   She looks ahead, she paints her toe nails red, 
   Shes wet and wild, a typical 90s child, 


Chorus: 

{1:07} 
e|-------------------------|    |--------------------| 
B|--3--1-------------------|    |---3--1-------------| 
G|--3--3--5----------5-3/5-|    |---3--3--5----------| 
D|--3--3--5-----3-h5-------|    |---3--3--5----------| 
A|--1--3--3----------------| x2 |---1--3--3----------| x2 
E|-------------------------|    |--------------------| 
   Strum --|                        -------| 

   She makes every move they make, 
   She takes everything they take, 
   She must be a thelma or louise, 
   She must be a post-modern sleaze 


Verse 2: 

{1:34} 
e|-------------------------|--------------------0----| 
B|-------------------------|----------------------1--| 
G|---------5-3/5-----------|---------5-3/5-----------| 
D|----3-h5-----------------|----3-h5-----------------| 
A|-------------------------|-------------------------| 
E|-------------------------|-------------------------| 

   Unscrew the wine, shell throw a party line, 


{1:40} 
e|-------------------------|-------------------------| 
B|------5-----x-5----------|------5-----------x-4-3--| 
G|------5-----x-5-3--------|------5-------0---x-3-3--| 
D|------5-----x-5----------|------5----1b-----x-3----| 
A|--3----------------------|--3----------------------| 
E|-------------------------|-------------------------| 


{1:47} 
|--------------------------|--------------------0----| 
|--------------------------|----------------------1--| 
|----------5-3/5-----------|---------5-3/5-----------| 
|-----3-h5-----------------|----3-h5-----------------| 
|--------------------------|-------------------------| 
|--------------------------|-------------------------| 

   Stories extreme, shes such a drama queen, 


{1:54} 
|--------------------------|-------------------------| 
|--------5-----------------|------5-----------x-4-3--| 
|--------5---2--2/-3\-2----|------5---7\-5----x-3-3--| 
|--------5---2--2/-3\-2----|------5---7\-5----x-3----| 
|----3-------0-------------|--3----------------------| 
|--------------------------|-------------------------| 


{2:01} 
|--------------------------|--------------------0----| 
|--------------------------|----------------------1--| 
|----------5-3/5-----------|---------5-3/5-----------| 
|-----3-h5-----------------|----3-h5-----------------| 
|--------------------------|-------------------------| 
|--------------------------|-------------------------| 

   Cries through the night, she choked on Marlboro lites, 


{2:07} 
e|-------------------------|-------------------------| 
B|------5-----x-5----------|------5-----------x-4-3--| 
G|------5-----x-5-3--------|------5-------0---x-3-3--| 
D|------5-----x-5----------|------5----1b-----x-3----| 
A|--3----------------------|--3----------------------| 
E|-------------------------|-------------------------| 


{2:15} 
|--------------------------|--------------------0----| 
|--------------------------|----------------------1--| 
|----------5-3/5-----------|---------5-3/5-----------| 
|-----3-h5-----------------|----3-h5-----------------| 
|--------------------------|-------------------------| 
|--------------------------|-------------------------| 

   Pure charm and grace, she hates her pretty face, 



play Chorus 

Interlude 


Verse 3: 

   Straw spun from gold, she craves a tortured soul, 
   All doom and gloom, she plays an open wound, 


Chorus 2: 

   She takes every scene they steal, 
   She takes every pain they feel, 
   She must be a thelma or louise, 
   She must be a post-modern sleaze 

		  

See also:

tabs Ryan Cabrera - True (ver. 2) tabs Hilary Duff - Come Clean tabs My Chemical Romance - I Don't Love You tabs Maroon 5 - Harder To Breathe tabs Ashlee Simpson - La la tabs Drake bell - Makes Me Happy
e-chords

Other versions:

tabs Sneaker pimps - Post-modern sleaze
auto scroll beats size up size down change color hide chords drawings
tab show chords e-chords YouTube Clip e-chords hide all tabs e-chords go to top tab

share