Slipknot

home > Slipknot

Only One Tab

Slipknot

Difficulty: IntermediateIntermediate

tuner correct add songbook print version text version save to e-mail
chordsukulelecavacokeyboardtabbassdrummharmonicsflute Guitar Pro
chords

Only One

  		 
Afinação(D A D G B E) 
 
D|-0--3-2-1-0--4-3-1-3- 
A|-0--3-2-1-0--4-3-1-3- 
D|-0--3-2-1-0--4-3-1-3- 
 
 
D|-3-2-0-1-0 
A|-3-2-0-1-0 
D|-3-2-0-1-0 
 
 
e|-3/5-3/5-xxxxxxxx 
b|-3/5-3/5-xxxxxxxx 
G|-3/5-3/5-xxxxxxxx 
 
 
D|-1-0-0-2-3- 
A|-1-0-0-2-3- 
D|-1-0-0-2-3- 
 
 
 
D|-1-0-------- 
A|-1-0--1-3-1- 
D|-1-0-------- 
 
 
D|-x-x-x-x-x-x-x-x- 
A|-x-x-x-x-x-x-x-x- 
D|-x-x-x-x-x-x-x-x- 
 
 
_______________________________________________________ 
Contribuição: Alceu Cintra De Oliveira Neto(AlceuKornSoadRageCypress)([email protected]) 

	  

Full key step upFull key step up
Half key step upHalf key step up
Half key step downHalf key step down
Full key step downFull key step down
Search Paypal
auto scroll beats size up size down change color hide chords drawings
tab show chords e-chords YouTube Clip e-chords hide all tabs e-chords go to top tab