Slipknot

home > Slipknot

Metabolic Tab

Slipknot

Difficulty: nolevelnolevel

by VELHO

tuner correct add songbook print version text version save to e-mail
chordsukulelecavacokeyboardtabbassdrummharmonicsflute Guitar Pro
chords

Metabolic

  		Afinação(B,F#,B,E,G#,C#) 



C#|--------------------------------------| 
G#|--------------------------------------| 
E |--------------------------------------| 4x 
B |-0-0-0-5-0-0-0-5-5-0-0-0-5-0-0-0------| 
F#|-0-0-0-5-0-0-0-5-5-0-0-0-5-0-0-0--7-5-| 
B |-0-0-0-5-0-0-0-5-5-0-0-0-5-0-0-0------| 


|------------------| 
|------------------| 
|------------------| 8x 
|-3-2-1-0----------| 
|-3-2-1-0--5p0-3p0-| 
|-3-2-1-0----------| 



|------------------| 
|------------------| 
|------------------| 8x 
|------------------| 
|----------5p0-3p0-| 
|-3-2-1-0----------|  


|-------------------------------| 
|-------------------------------| 
|-------------------------------| 1x 
|-0-0-0-5-0-0-0-5-5-0-0-0-0-0-0-| 
|-0-0-0-5-0-0-0-5-5-0-0-0-0-0-0-| 
|-0-0-0-5-0-0-0-5-5-0-0-0-0-0-0-| 


|------------------| 
|------------------| 
|------------------| 8x 
|------------------| 
|----------5p0-3p0-| 
|-3-2-1-0----------|  

|------------------------| 
|------------------------| 
|------------------------| 4x 
|-5-5-5-5-5-5-5----------| 
|-5-5-5-5-5-5-5----------| 
|-5-5-5-5-5-5-5--7/10~~~-| 


|--------|  |-----------------------------|  |-----------------| 
|--------|  |-----------------------------|  |-----------------| 
|--------|1x|-----------------------------|3x|-----------------| 1x 
|--------|  |-5-4-5-4--7-9--12-12-12--9-7-|  |---------4--5--6-| 
|--------|  |-5-4-5-4--7-9--12-12-12--9-7-|  |---------4--5--6-| 
|-*3.75*-|  |-5-4-5-4--7-9--12-12-12--9-7-|  |-*3.75*--4--5--6-| 


|---------------------|  |---------------------| 
|---------------------|  |-2-2-2-2-2-2-2-2-2-2-| 5x 
|---------------------|4x|---------------------| 
|---------------------|  |---------------------| 
|-0-0-0-0-0-0-0-0-0-0-|  |---------------------| 
|-0-0-0-0-0-0-0-0-0-0-|  |---------------------| 


|------------------| 
|------------------| 
|------------------| 8x 
|-3-2-1-0----------| 
|-3-2-1-0--5p0-3p0-| 
|-3-2-1-0----------| 



|---------------------------------------------------------| 
|---------------------------------------------------------| 
|---------------------------------------------------------| 1x 
|-3-2-1-0---3-2-1-0---3-2-1-0---3-2-1-0-----------3-2-1-0-| 
|-3-2-1-0---3-2-1-0---3-2-1-0---3-2-1-0--5p0-3p0--3-2-1-0-| 
|-3-2-1-0---3-2-1-0---3-2-1-0---3-2-1-0-----------3-2-1-0-| 


|--------|  |-----------------------------|  |-----------------| 
|--------|  |-----------------------------|  |-----------------| 
|--------|1x|-----------------------------|3x|-----------------| 1x 
|--------|  |-5-4-5-4--7-9--12-12-12--9-7-|  |---------4--5--6-| 
|--------|  |-5-4-5-4--7-9--12-12-12--9-7-|  |---------4--5--6-| 
|-*3.75*-|  |-5-4-5-4--7-9--12-12-12--9-7-|  |-*3.75*--4--5--6-|  


|---------------------|  |---------------------| 
|---------------------|  |-2-2-2-2-2-2-2-2-2-2-| 5x 
|---------------------|4x|---------------------| 
|---------------------|  |---------------------| 
|-0-0-0-0-0-0-0-0-0-0-|  |---------------------| 
|-0-0-0-0-0-0-0-0-0-0-|  |---------------------| 


|-----------------------------------------------------------------| 
|-----------------------------------------------------------------| 
|-----------------------------------------------------------------| 4x 
|-----------------------------------------------------------------| 
|-7-7-7-7-4-4-4-4-2-2-2-2-2-2-5-5-5-5-3-3-3-3-4-4-4-4-6-6-6-6-6-6-| 
|-----------------------------------------------------------------| 


|-----------------------------| 
|-----------------------------| 
|-----------------------------| 4x 
|-7-7-4-4-2-2-5-5-3-3-4-6-6-6-| 
|-7-7-4-4-2-2-5-5-3-3-4-6-6-6-| 
|-7-7-4-4-2-2-5-5-3-3-4-6-6-6-| 



|-----------------------------------------------------------------| 
|-----------------------------------------------------------------| 
|-----------------------------------------------------------------| 8x 
|-----------------------------------------------------------------| 
|-7-7-7-7-4-4-4-4-2-2-2-2-2-2-5-5-5-5-3-3-3-3-4-4-4-4-6-6-6-6-6-6-| 
|-----------------------------------------------------------------|  


|-----------------------------------------------| 
|-7-7-7-7-4-4-4-4-2-2-2-2-5-5-5-5-0-0-0-0-0-0-0-| 
|-----------------------------------------------| 4x 
|-----------------------------------------------| 
|-----------------------------------------------| 
|-----------------------------------------------| 

|-----------------| 
|-----------------| 
|-----------------| 7x 
|-7-7-4-2-5-3-4-6-| 
|-7-7-4-2-5-3-4-6-| 
|-7-7-4-2-5-3-4-6-| 


|---------------------------| 
|---------------------------| 
|---------------------------| 4x 
|---------------------------| 
|---------------------------| 
|-0-3-3-0-5-5-0-7-7-0-9-9-9-| 


|-----------------------------|  |-----------------| 
|-----------------------------|  |-----------------| 
|-----------------------------|3x|-----------------| 1x 
|-5-4-5-4--7-9--12-12-12--9-7-|  |---------4--5--6-| 
|-5-4-5-4--7-9--12-12-12--9-7-|  |---------4--5--6-| 
|-5-4-5-4--7-9--12-12-12--9-7-|  |-*3.75*--4--5--6-| 


|---------------------|  |---------------------| 
|---------------------|  |-2-2-2-2-2-2-2-2-2-2-| 8x 
|---------------------|8x|---------------------| 
|---------------------|  |---------------------| 
|-0-0-0-0-0-0-0-0-0-0-|  |---------------------| 
|-0-0-0-0-0-0-0-0-0-0-|  |---------------------| 


|-----------------|  |-------------| 
|-----------------|  |-------------| 
|-----------------|7x|-------------| 1x 
|-7-7-4-2-5-3-4-6-|  |-7-7-4-2-5-0-| 
|-7-7-4-2-5-3-4-6-|  |-7-7-4-2-5-0-| 
|-7-7-4-2-5-3-4-6-|  |-7-7-4-2-5-0-| 
	  

Search Paypal
auto scroll beats size up size down change color hide chords drawings
tab show chords e-chords YouTube Clip e-chords hide all tabs e-chords go to top tab