Slipknot

home > Slipknot

Metabolic Bass Tab

Slipknot

Difficulty: nolevelnolevel

by VELHO

tuner correct add songbook print version text version save to e-mail
chordsukulelecavacokeyboardtabbassdrummharmonicsflute Guitar Pro
chords

Metabolic

  		Tunning: B,E,A,D 

Intro 
D|----------------------| 
A|----------------------|------| 
E|-----6/7-----6/7-75--|      | 
B|-000-----000----------|      | 
                               |-----> Repeat this 3 times 
D|-----------------|           | 
A|-----------------|           | 
E|-----6/7-----75-|-----------| 
B|-000-----000-----| 

Last Time 
D|---------------------| 
A|---------------------| 
E|-----6/7-----6/7-75-| 
B|-000-----000---------| 

D|---------| 
A|---------| 
E|-----6/7-| 
B|-000-----| 

Intro II 
D|---------------| 
A|---------------| 
E|------6/7-75--| 
B|-0000----------| 

Verse I 
D|-----------------| 
A|-----------------| 
E|---------2---1---|x8 
B|-3-2-1-0---0---1-| 

play The intro once and then play the verse 8 times  

Pre - Chorus 
D|---------| 
A|---------| 
E|---------| 
B|-1-2-1-2-| 

Chorus 
D|------------------------| 
A|------------------------| 
E|-6^---------------------|x1 
B|----43-54-65-76-7/8-| 

D|-------------------------| 
A|-------------------------| 
E|-666---------------------|x2 
B|-----43-54-65-76-7/8-| 

D|-r-|---------------------| 
A|-e-|---------------------| 
E|-s-|---------------------|x1 
B|-t-|-43-54-65-76-7/8-| 

D|-------------------------| 
A|-------------------------| 
E|-------------------------|x4 
B|-000-43-54-65-76-7/8-| 

Pre - verse 
D|----------| 
A|----------| 
E|----------| 
B|-0000-12-| 

Verse II 
D|---------------| 
A|---------------| 
E|------6/7-75--|x8 
B|-0000----------| 

D|------------------------------------------| 
A|------------------------------------------| 
E|---------------------6/7-75------6/7-75-| 
B|-0000-0000-0000-0000---------0000---------| 

Bridge I 
D|-----------------------| 
A|-----------------------| 
E|-----------------------|x1 
B|-000000--000000-000000-| 

D|------------------------| 
A|------------------------| 
E|------------------------|x3 
B|-00033322224441111/6666-| 

D|-------------| 
A|-------------| 
E|-------------|x1 
B|-00033322224-| 

Heavy Bridge 
D|----------------| 
A|----------------| 
E|----------------|x12 
B|-00-3-2-4-1-3/6-| 

Rest while Corey sings "for memories" 

Then continue with this 
D|-----------| 
A|-----------| 
E|-----------|x1 
B|-2-4-1-3/6-| 

D|----------------| 
A|----------------| 
E|----------------|x3 
B|-00-3-2-4-1-3/6-| 

Pre - Chorus II 
D|----------------| 
A|----------------| 
E|----------------| 
B|-00-00-0000-000-| 

Last Chorus 
D|---------------------| 
A|---------------------| 
E|---------------------|x1 
B|-43-54-65-76-7/8-| 

D|-------------------------| 
A|-------------------------| 
E|-666---------------------|x2 
B|-----43-54-65-76-7/8-| 

D|-r-|---------------------| 
A|-e-|---------------------| 
E|-s-|---------------------|x1 
B|-t-|-43-54-65-76-7/8-| 

D|-------------------------| 
A|-------------------------| 
E|-------------------------|x8 
B|-000-43-54-65-76-7/8-| 

Outro 
D|----------------| 
A|----------------| 
E|----------------|x7 
B|-00-3-2-4-1-3/6-| 

D|------------| 
A|------------| 
E|------------|x1 
B|-00-3-2-4-1-| 
	  

Search Paypal
auto scroll beats size up size down change color hide chords drawings
tab show chords e-chords YouTube Clip e-chords hide all tabs e-chords go to top tab