Slipknot

home > Slipknot

Everything Ends Tab

Slipknot

Difficulty: nolevelnolevel

by VELHO

tuner correct add songbook print version text version save to e-mail
chordsukulelecavacokeyboardtabbassdrumsharmonicsflute Guitar Pro
chords

Everything Ends

  		Afinação(B,F#,B,E,G#,C#) 


C#|-------------------------------| 
G#|-------------------------------| 
E |-------------------------------|  
B |-------------------------------| 
F#|----3tp-2tp--------------------| 
B |1tp------3tp-----------5tp-6tp-| 
  (2 vezes,na corda B,vai do 3,pro 5,pro 6,volta pro 3 uma vez,e dps pro 1) 

C#|----------------------------------------------------| 
G#|----------------------------------------------------| 
E |----------------------------------------------------|  
B |-0-0-6-5/-0--0-0-6-5/0-0--/8--0-0-7-6/-0--0-6-5/0-3-| 
F#|-0-0-6-5/-0--0-0-6-5/0-0--/8--0-0-7-6/-0--0-6-5/0-3-| 
B |-0-0-6-5/-0--0-0-6-5/0-0--/8--0-0-7-6/-0--0-6-5/0-3-| 


C#|----------------------| 
G#|----------------------| 
E |----------------------| 
B |-0-0-0-1-0---0-0--0-0-| 
F#|-0-0-0-1-0---0-0--0-0-| 
B |-0-0-0-1-0---0-0--0-0-| 

C#|----------------------------------------------------| 
G#|----------------------------------------------------| 
E |----------------------------------------------------| 
B |----------------------------------------------------| 
F#|----------------------------------------------------| 
B |-0-0-0-4-0-4--0-0-0-2--1--0-0-0-4-0-4--0-0-0-1--0---| 


C#|-------------| 
G#|-------------| 
E |-------------| 
B |-------------| 
F#|-------------| 
B |-0-0-0-4-0-4-| 

C#|---------6b-6b-| 
G#|---------------| 
E |---------------| 
B |-0-0-4-0-------| 
F#|-0-0-4-0-------| 
B |-0-0-4-0-------| 


C#|---------------| 
G#|---------------| 
E |---------------| 
B |-0-5-4-0-1-3-4-| 
F#|-0-5-4-0-1-3-4-| 
B |-0-5-4-0-1-3-4-| 
	  

Search Paypal
auto scroll beats size up size down change color hide chords drawings
tab show chords e-chords YouTube Clip e-chords hide all tabs e-chords go to top tab