Slipknot

home > Slipknot

Custer Tab

Slipknot

Difficulty: ExpertExpert

by andrsouza

tuner correct add songbook print version text version save to e-mail
chordsukulelecavacokeyboardtabbassdrumsharmonicsflute Guitar Pro
chords

Custer

Key:  B More
Custer Key F#F#
Custer Key GG
Custer Key G#G#
Custer Key AA(one step down)
Custer Key A#A#(half step down)
Custer Key BB(original key)
Custer Key CC(half step up)
Custer Key C#C#(one step up)
Custer Key DD
Custer Key D#D#
Custer Key EE
Custer Key FF
  		SLIPKNOT 

CUSTER 

B-F#-B-E-G#-C# 


TABBED BY andherembrace 



video reference 

https://drive.google.com/file/d/0B1AHRImLJJTYUW53N3FGYTVVakk/view?usp=sharing 




L 
-------------------------------------------------------------------| 
-------------------------------------------------------------------| 
-------------------------------------------------------------------| 
-------------------------------------------------------------------| 
----1----1----1-1-1----1----1----1-1-1-----^------^------^---^-----| 
-00-1-00-1-00-1-1-1-00-1-00-1-00-1-1-1-00-4-3-00-4-3-00-4-3-0-1-0--| 
 **   **   **       **   **   **       **     **     **  
R     
-------------------------------------------------------------------| 
-------------------------------------------------------------------| 
-------------------------------------------------------------------| 
-------------------------------------------------------------------| 
----1----1----1-1-1----1----1----1-1-1----1------------------------| 
-00-1-00-1-00-1-1-1-00-1-00-1-00-1-1-1-00-1------------------------| 
 **   **   **       **   **   **       **  |     


L 
-----------------------------------------------------------------------------------| 
-----------------------------------------------------------------------------------| 
-----------------------------------------------------------------------------------| 
-----------------------------------------------------------------------------------| 
------^------^------^---^--------^------^------^---^--------^------^------^---^----| 
--00-4-3-00-4-3-00-4-3-0-1-0-00-4-3-00-4-3-00-4-3-0-1-0-00-4-3-00-4-3-00-4-3-0-1-0-| 
  **     **     **           **     **     **           **     **     **  
R 
-----------------------------------------------------------------------------------| 
-----------------------------------------------------------------------------------| 
-----------------------------------------------------------------------------------| 
-----------------------------------------------------------------------------------| 
--------------------------------0-----0--------------------0------0----------------| 
--------------------------------0-----0--------------------0------0----------------| 
                                  |     |                    |      | 




B 
---------------------------------------------------------| 
---------------------------------------------------------| 
---------------------------------------------------------| 
---------------------------------------------------------| 
------^------^------^---^--------^------^------^---^-----| 
--00-4-3-00-4-3-00-4-3-0-1-0-00-4-3-00-4-3-00-4-3-0-1-0--| 
  **     **     **           **     **     **           

---------------------------------------------------------| 
---------------------------------------------------------| 
---------------------------------------------------------| 
---------------------------------------------------------| 
------^------^------^---^--------^------^------^---^-----| 
--00-4-3-00-4-3-00-4-3-0-1-0-00-4-3-00-4-3-00-4-3-0-1-0--| 
  **     **     **           **     **     **           
---------------------------------------------------------| 
---------------------------------------------------------| 
---------------------------------------------------------| 
---------------------------------------------------------| 
------^------^------^---^--------^------^------^---^-----| 
--00-4-3-00-4-3-00-4-3-0-1-0-00-4-3-00-4-3-00-4-3-0-1-0--| 
  **     **     **           **     **     **           

-----------------------------------------------------------| 
-----------------------------------------------------------| 
-----------------------------------------------------------| 
-----------------------------------------------------------| 
------^------^------^---^--------^------^------^---^-------| 
--00-4-3-00-4-3-00-4-3-0-1-0-00-4-3-00-4-3-00-4-3-0-1-0-00-| 
  **     **     **           **     **     **           ** 


L 
----------------------------------------------------------------------------| 
----------------------------------------------------------------------------| 
----------------------------------------------------------------------------| 
-0--------------------------------------------------------------------------| 
-0--------------------------------------------------------------------------| 
-0--------------------------------------------------------------------------| 

R 
----------------------------------------------------------------------------| 
-3--------------------------------------------------------------------------| 
-2--------------------------------------------------------------------------| 
-0--------------------------------------------------------------------------| 
-0--------------------------------------------------------------------------| 
-0--------------------------------------------------------------------------| 







0:54 


L W/CHOPPER 
-----------------------------------------------------------------| 
-----------------------------------------------------------------| 
-----------------------------------------------------------------| 
///------///-------------///--///--///------///------------///---| 
-6--------5---------------6----5----8--------6--------------8----| 
-----------------------------------------------------------------| 
L 
-----------------------------------------------------------------| 
-----------------------------------------------------------------| 
-----------------------------------------------------------------| 
///------///-------------///--///--///------///------------///---| 
-6--------5---------------6----5----8--------6--------------8----| 
-----------------------------------------------------------------| 



1:09 

L 
-----------------------------------------------------------------| 
-----------------------------------------------------------------| 
-----------------------------------------------------------------| 
///------///-------------///--///--///------///------------///---| 
-6--------5---------------6----5----8--------6--------------8----| 
-----------------------------------------------------------------| 

R 
-----------------------------------------------------------------| 
-----------------------------------------------------------------| 
-----------------------------------------------------------------| 
///------///-------------///--///--///------///------------///---| 
-6--------5---------------6----5----8--------6--------------8----| 
-----------------------------------------------------------------| 



L 
-----------------------------------------------------------------| 
-----------------------------------------------------------------| 
-----------------------------------------------------------------| 
///------///-------------///--///--///------///------------------| 
-6--------5---------------6----5----8--------6-------------------| 
---------------------------------------------------------/-------| 

R 
-----------------------------------------------------------------| 
-----------------------------------------------------------------| 
-----------------------------------------------------------------| 
///------///-------------///--///--///------///------------------| 
-6--------5---------------6----5----8--------6-------------------| 
-----------------------------------------------------------------| 

R2 
-----------------------------------------------------------------| 
-----------------------------------------------------------------| 
///------///-------------///--///--///------///------------------| 
-13------12--------------13----12---15-------13------------------| 
-----------------------------------------------------------------| 
-----------------------------------------------------------------| 





1:24 

L 
----------------------------------------------| 
----------------------------------------------| 
----------------------------------------------| 
----------------------------------------------| 
----------------------------------------------| 
-13-00-13-00-13-13-13-00-13-00-13-00-13-13-13-| 
    **    **          **    **    **   


B 
---------------------------------------------------------| 
---------------------------------------------------------| 
---------------------------------------------------------| 
---------------------------------------------------------| 
------^------^------^---^--------^------^------^---^-----| 
--00-4-3-00-4-3-00-4-3-0-1-0-00-4-3-00-4-3-00-4-3-0-1-0--| 
  **     **     **           **     **     **           

---------------------------------------------------------| 
---------------------------------------------------------| 
---------------------------------------------------------| 
---------------------------------------------------------| 
------^------^------^---^--------^------^------^---^-----| 
--00-4-3-00-4-3-00-4-3-0-1-0-00-4-3-00-4-3-00-4-3-0-1-0--| 
  **     **     **           **     **     **           
---------------------------------------------------------| 
---------------------------------------------------------| 
---------------------------------------------------------| 
---------------------------------------------------------| 
------^------^------^---^--------^------^------^---^-----| 
--00-4-3-00-4-3-00-4-3-0-1-0-00-4-3-00-4-3-00-4-3-0-1-0--| 
  **     **     **           **     **     **           

-----------------------------------------------------------| 
-----------------------------------------------------------| 
-----------------------------------------------------------| 
-----------------------------------------------------------| 
------^------^------^---^--------^------^------^---^-------| 
--00-4-3-00-4-3-00-4-3-0-1-0-00-4-3-00-4-3-00-4-3-0-1-0-00-| 
  **     **     **           **     **     **           ** 


-----------------------------------------------------------| 
-----------------------------------------------------------| 
-----------------------------------------------------------| 
-----------------------------------------------------------| 
------^------^------^---^--------^------^------^---^-------| 
--00-4-3-00-4-3-00-4-3-0-1-0-00-4-3-00-4-3-00-4-3-0-1-0-00-| 
  **     **     **           **     **     **           ** 






1:46 




L 
----------------------------------------------------------------| 
-----------)(--------------------------)()(---------------------| 
----------7-----14--8-7---------------7-------------------------| 
----------x------x--x-x---------------x-------------------------| 
----/8-7--5----/12--6-5---)(----------5-------------------------| 
-0-----------------------7---0--/7-6----------7-6--0-1-3-1-0-1--| 
                                                   * * * * * * 

R 
----------------------------------------------------------------| 
----------------------------------------------------------------| 
----------------------------------------------------------------| 
-----------)(--------------------------)()(---------------------| 
----------5----/12--6-5---)(----------5-------------------------| 
-0--/8-7-----------------7---0--/7-6----------7-6--0-1-3-1-0-1--| 
                                                   * * * * * * 



L 
-----------------------------------------------------------------| 
-----------)(--------------------------)()(----------------------| 
----------7-----14--8-7---------------7--------------------------| 
----------x------x--x-x---------------x--------------------------| 
----/8-7--5----/12--6-5---)(----------5------------------------0-| 
-0-----------------------7---0--/7-6----------7-6--0-1-3-1-0-1-0-| 
                                                   * * * * * * 
R 
--------------------------------------------------------------------| 
--------------------------------------------------------------------| 
--------------------------------------------------------------------| 
-----------)(--------------------------)()(--------------------0----| 
----------5----/12--6-5---)(----------5------------------------0----| 
-0--/8-7-----------------7---0--/7-6----------7-6--0-1-3-1-0-1-0----| 
                                                   * * * * * * 






2:08 



------------------------------------------------------------------| 
------------------------------------------------------------------| 
------------------------------------------------------------------| 
------------------------------------------------------------------| 
------------------------------------------------------------------| 
-1-1-1-1-0-0-0-0-0-0-0-0-1-1-0-0-3-3-3-3-1-1-1-1-1-1-1-1-1-1-3-3--| 
 * * * * * * * * * * * * * * * * * * * * * * * * * * * * * * * *  


------------------------------------------------------------------| 
------------------------------------------------------------------| 
------------------------------------------------------------------| 
------------------------------------------------------------------| 
------------------------------------------------------------------| 
-1-1-1-1-0-0-0-0-0-0-0-0-1-1-0-0-3-3-3-3-1-1-1-1-1-1-1-1-1-1-3-3--| 
 * * * * * * * * * * * * * * * * * * * * * * * * * * * * * * * *  



-------------------------------------------------------------------| 
-------------------------------------------------------------------| 
///------///-------------///--///--///------///---------------///--| 
-13------12--------------13----12---15-------13---------------15---| 
-------------------------------------------------------------------| 
-------------------------------------------------------------------| 


-----------------------------------------------------------------| 
-----------------------------------------------------------------| 
///------///-------------///--///--///------///------------------| 
-13------12--------------13----12---15-------13------------------| 
-----------------------------------------------------------------| 
-----------------------------------------------------------------| 








2:36 


L 
----------------------------------------------| 
----------------------------------------------| 
----------------------------------------------| 
----------------------------------------------| 
----------------------------------------------| 
-13-00-13-00-13-13-13-00-13-00-13-00-13-13-13-| 
    **    **          **    **    **   


B 
---------------------------------------------------------| 
---------------------------------------------------------| 
---------------------------------------------------------| 
---------------------------------------------------------| 
------^------^------^---^--------^------^------^---^-----| 
--00-4-3-00-4-3-00-4-3-0-1-0-00-4-3-00-4-3-00-4-3-0-1-0--| 
  **     **     **           **     **     **           

---------------------------------------------------------| 
---------------------------------------------------------| 
---------------------------------------------------------| 
---------------------------------------------------------| 
------^------^------^---^--------^------^------^---^-----| 
--00-4-3-00-4-3-00-4-3-0-1-0-00-4-3-00-4-3-00-4-3-0-1-0--| 
  **     **     **           **     **     **           
---------------------------------------------------------| 
---------------------------------------------------------| 
---------------------------------------------------------| 
---------------------------------------------------------| 
------^------^------^---^--------^------^------^---^-----| 
--00-4-3-00-4-3-00-4-3-0-1-0-00-4-3-00-4-3-00-4-3-0-1-0--| 
  **     **     **           **     **     **           

-----------------------------------------------------------| 
-----------------------------------------------------------| 
-----------------------------------------------------------| 
-----------------------------------------------------------| 
------^------^------^---^--------^------^------^---^-------| 
--00-4-3-00-4-3-00-4-3-0-1-0-00-4-3-00-4-3-00-4-3-0-1-0-00-| 
  **     **     **           **     **     **           ** 


-----------------------------------------------------------| 
-----------------------------------------------------------| 
-----------------------------------------------------------| 
-----------------------------------------------------------| 
------^------^------^---^--------^------^------^---^-------| 
--00-4-3-00-4-3-00-4-3-0-1-0-00-4-3-00-4-3-00-4-3-0-1-0-00-| 
  **     **     **           **     **     **           ** 



L 
----------------------------------------------------------------| 
-----------)(--------------------------)()(---------------------| 
----------7-----14--8-7---------------7-------------------------| 
----------x------x--x-x---------------x-------------------------| 
----/8-7--5----/12--6-5---)(----------5-------------------------| 
-0-----------------------7---0--/7-6----------7-6--0-1-3-1-0-1--| 
                                                   * * * * * * 
R 
----------------------------------------------------------------| 
----------------------------------------------------------------| 
----------------------------------------------------------------| 
-----------)(--------------------------)()(---------------------| 
----------5----/12--6-5---)(----------5-------------------------| 
-0--/8-7-----------------7---0--/7-6----------7-6--0-1-3-1-0-1--| 
                                                   * * * * * * 

L 
----------------------------------------------------------------| 
-----------)(--------------------------)()(---------------------| 
----------7-----14--8-7---------------7-------------------------| 
----------x------x--x-x---------------x-------------------------| 
----/8-7--5----/12--6-5---)(----------5-------------------------| 
-0-----------------------7---0--/7-6----------7-6--0-1-3-1-0-1--| 
                                                   * * * * * * 

R 
----------------------------------------------------------------| 
----------------------------------------------------------------| 
----------------------------------------------------------------| 
-----------)(--------------------------)()(---------------------| 
----------5----/12--6-5---)(----------5-------------------------| 
-0--/8-7-----------------7---0--/7-6----------7-6--0-1-3-1-0-1--| 
                                                   * * * * * * 






L 
----------------------------------------------------------------| 
-----------)(--------------------------)()(---------------------| 
----------7-----14--8-7---------------7-------------------------| 
----------x------x--x-x----)(---------x-------------------------| 
----/8-7--5----/12--6-5---7-----------5-------------------------| 
-0---------------------------0--/7-6----------7-6--0-1-3-1-0-1--| 
                                                   * * * * * * 
R 
----------------------------------------------------------------| 
----------------------------------------------------------------| 
----------------------------------------------------------------| 
-----------)(--------------------------)()(---------------------| 
----------5----/12--6-5---)(----------5-------------------------| 
-0--/8-7-----------------7---0--/7-6----------7-6--0-1-3-1-0-1--| 
                                                   * * * * * * 



L 
----------------------------------------------------------------| 
-----------)(--------------------------)()(---------------------| 
----------7-----14--8-7---------------7-------------------------| 
----------x------x--x-x----)(---------x-------------------------| 
----/8-7--5----/12--6-5---7-----------5-------------------------| 
-0---------------------------0--/7-6----------7-6--0-1-3-1-0-1--| 
                                                   * * * * * * 

R 
----------------------------------------------------------------| 
----------------------------------------------------------------| 
----------------------------------------------------------------| 
-----------)(--------------------------)()(---------------------| 
----------5----/12--6-5---)(----------5-------------------------| 
-0--/8-7-----------------7---0--/7-6----------7-6--0-1-3-1-0-1--| 
                                                   * * * * * * 







3:28 



---------------------------------------------------| 
---------------------------------------------------| 
---------------------------------------------------| 
---------------------------------------------------| 
-----)(--------------------)(------------------)(--| 
-0--1------0-1-3-1-0-1-0--5----0-1-3-1-0-1-0--1----| 
           * * * * * *         * * * * * *       

----------------------------------------------| 
----------------------------------------------| 
----------------------------------------------| 
----------------------------------------------| 
----------------------------------------------| 
-0-1-3-1-0-1-3-1-0-1-3-1-0-1-3-1-0-1-3-1-0-1--| 
 * * * * * * * * * * * * * * * * * * * * * * 


---------------------------------------------------| 
---------------------------------------------------| 
---------------------------------------------------| 
---------------------------------------------------| 
---------------------------------------------------| 
-0--/6-5--0-1-3-1-0-1-0--/8-7--0-1-3-1-0-1-0--/6-5-| 
          * * * * * *          * * * * * *       

----------------------------------------------| 
----------------------------------------------| 
----------------------------------------------| 
----------------------------------------------| 
----------------------------------------------| 
-0-1-3-1-0-1-3-1-0-1-3-1-0-1-3-1-0-1-3-1-0-1--| 
 * * * * * * * * * * * * * * * * * * * * * * 


-----------------------------------------------------| 
-----------------------------------------------------| 
-----------------------------------------------------| 
-----------------------------------------------------| 
-----------------------------------------------------| 
-0--/6-5--0-1-3-1-0-1-0--/8-7--0-1-3-1-0-1-0--/6-5---| 
          * * * * * *          * * * * * *       


--------------------------------------| 
--------------------------------------| 
--------------------------------------| 
--------------------------------------| 
-----------------------------3-6-2-5--| 
-0-1-3-1-0-1-3-1-0-1-3-1-0-1-3-6-2-5--| 
 * * * * * * * * * * * * * *               



3:50 

B 
---------------------------------------------------------| 
---------------------------------------------------------| 
---------------------------------------------------------| 
---------------------------------------------------------| 
------^------^------^---^--------^------^------^---^-----| 
--00-4-3-00-4-3-00-4-3-0-1-0-00-4-3-00-4-3-00-4-3-0-1-0--| 
  **     **     **           **     **     **           


L 
----------------------------------------------------------------------| 
----------------------------------------------------------------------| 
----------------------------------------------------------------------| 
----------------------------------------------------------------------| 
------^------^------^---^--------^------^-----------------------------| 
--00-4-3-00-4-3-00-4-3-0-1-0-00-4-3-00-4-3-00-10-10-13-13-9-9-12-12---| 
  **     **     **           **     **     **  *  *  *  * * *  *  * 
R  
----------------------------------------------------------------| 
----------------------------------------------------------------| 
----------------------------------------------------------------| 
----------------------------------------------------------------| 
------^------^------^---^--------^------^-----------------------| 
--00-4-3-00-4-3-00-4-3-0-1-0-00-4-3-00-4-3-00-3-3-6-6-2-2-5-5---| 
  **     **     **           **     **     ** * * * * * * * *       



B 
---------------------------------------------------------| 
---------------------------------------------------------| 
---------------------------------------------------------| 
---------------------------------------------------------| 
------^------^------^---^--------^------^------^---^-----| 
--00-4-3-00-4-3-00-4-3-0-1-0-00-4-3-00-4-3-00-4-3-0-1-0--| 
  **     **     **           **     **     **           


L 
----------------------------------------------------------------------| 
----------------------------------------------------------------------| 
----------------------------------------------------------------------| 
----------------------------------------------------------------------| 
------^------^------^---^--------^------^-----------------------------| 
--00-4-3-00-4-3-00-4-3-0-1-0-00-4-3-00-4-3-00-10-10-13-13-9-9-12-12---| 
  **     **     **           **     **     **  *  *  *  * * *  *  * 
R  
----------------------------------------------------------------| 
----------------------------------------------------------------| 
----------------------------------------------------------------| 
----------------------------------------------------------------| 
------^------^------^---^--------^------^-----------------------| 
--00-4-3-00-4-3-00-4-3-0-1-0-00-4-3-00-4-3-00-3-3-6-6-2-2-5-5---| 
  **     **     **           **     **     ** * * * * * * * *        

B 
---------------------------------------------------------| 
---------------------------------------------------------| 
---------------------------------------------------------| 
---------------------------------------------------------| 
------^------^------^---^--------^------^------^---^-----| 
--00-4-3-00-4-3-00-4-3-0-1-0-00-4-3-00-4-3-00-4-3-0-1-0--| 
  **     **     **           **     **     **           

---------------------------------------------------------| 
---------------------------------------------------------| 
---------------------------------------------------------| 
---------------------------------------------------------| 
------^------^------^---^--------^------^-----3-6-2-5----| 
--00-4-3-00-4-3-00-4-3-0-1-0-00-4-3-00-4-3-00-3-6-2-5----| 
  **     **     **           **     **     ** 
	  

Full key step upFull key step up
Half key step upHalf key step up
Half key step downHalf key step down
Full key step downFull key step down
Search Paypal
auto scroll beats size up size down change color hide chords drawings
tab show chords e-chords YouTube Clip e-chords hide all tabs e-chords go to top tab