save to print version add songbook text version e-mail correct tuner
chordsukulelecavacokeyboardtabbassdrumsharmonicaflute Guitar Pro
close

there isn't a video lesson for this song

chords

2 Am

Key:  G More
2 Am Key DD
2 Am Key D#D#
2 Am Key EE
2 Am Key FF(one step down)
2 Am Key F#F#(half step down)
2 Am Key GG(original key)
2 Am Key G#G#(half step up)
2 Am Key AA(one step up)
2 Am Key A#A#
2 Am Key BB
2 Am Key CC
2 Am Key C#C#
	  		

Alright, this song is mainly just two chords: G and A (or Am, you can pick, I prefer Am). 


        G             A  or  Am 
e|------3-------------5------5-----| 
B|------3-------------5------5-----| 
G|------4-------------6------5-----| 
D|------5-------------7------7-----| 
A|------5-------------7------7-----| 
E|------3-------------5------5-----| 

Now the next thing is the little guitar riff. 
You can hear it at 2:53 in the song.  
I sounded it out by ear and I think it's pretty accurate.  

e|-------------------------------------------------| 
B|-------------------------------------------------| 
G|--4-2-0-------0h2p0-----------------0h2p0---0----| 
D|----------0-2-------2----------0-2--------2------| 
A|----------------------0--------------------------| 
E|-------------------------------------------------| 

e|---------------------------------------------------------------------------| 
B|----------0h1-3/5-5/8\5-3-5-3-1-0-1-0-------------------0-1-0--------------| 
G|------0h2-----------------------------2-0-2-0-------0-2--------------------| 
D|--0h2-----------------------------------------2-0-2------------------------| 
A|---------------------------------------------------------------------------| 
E|---------------------------------------------------------------------------| 

Not too sure when the hammer-ons and pull-offs are, but you get the gist.  

Have fun, it's a great song to jam to. 

-Jack 

************************************ 

| /   slide up 
| \   slide down 
| h   hammer-on 
| p   pull-off 
| ~   vibrato 
| +   harmonic 
| x   Mute note 
| b   Bend 
| pb  Pre-bend 
| br  Bend release 
| pbr Pre-bend release 
| brb Bend release bend 

************************************ 
		  

Full key step upFull key step up
Half key step upHalf key step up
Half key step downHalf key step down
Full key step downFull key step down
hide glossary

See also:

tabs Kelly Clarkson - Because Of You tabs Gavin Degraw - Follow Through tabs Stevie Wonder - Isn't She Lovely tabs Amy Lee ft. Seether - Broken tabs My Chemical Romance - Thank You For The Venom tabs My Chemical Romance - I'm Not Okay (I Promise)
e-chords

Other versions:

tabs Iron Maiden - 2 A.M. tabs Slightly Stoopid - 2 Am
auto scroll beats size up size down change color hide chords drawings
tab show chords e-chords YouTube Clip e-chords hide all tabs e-chords go to top tab

share