Slash's Snakepit

Godfather Theme

Slash's Snakepit

tabs Beginner beginner

save to print version add songbook text version e-mail correct tuner
chordsukulelecavacokeyboardtabbassdrumsharmonicaflute Guitar Pro
close

there isn't a video lesson for this song

chords

Godfather Theme

	  		|----------------------------------------------------------------| 
|-14---14-15-16--15-15---------15---14-15-16--15-15--------------| 
|----------------------15~~-------------------------14~~---------| 
|----------------------------------------------------------------| 
|----------------------------------------------------------------| 
|----------------------------------------------------------------| 
                         br        br      br     br      
|------------------------/--------/-------------/-------------| 
|-15---14-15-18--15-14-15-(15)---14-(14)---/---14-(14)----------| 
|----------------------------------------14-(14)--------14-------| 
|----------------------------------------------------------------| 
|----------------------------------------------------------------| 
|----------------------------------------------------------------| 
 
|----10-13-12-10-13-10-12-10-------------------------------------| 
|-10-------------------------11-13-10----------------------------| 
|----------------------------------------------------------------| 
|----------------------------------------------------------------| 
|----------------------------------------------------------------| 
|----------------------------------------------------------------| 
                             s 
|----10-13-12-10-13-10-12-10-------------------------------------| 
|-10-------------------------/6h10-9-8---------------------------| 
|----------------------------------------------------------------| 
|----------------------------------------------------------------| 
|----------------------------------------------------------------| 
|----------------------------------------------------------------| 
  s        b            b/ s 
|-----------/-------6-9-9----------------------------------------| 
|----6-10-10-----/8---------------13-11-10~13-11-10~10-----------| 
|-/7---------------------------10--------------------------------| 
|--------------------------/12---------------------------11-12~--| 
|----------------------------------------------------------------| 
|----------------------------------------------------------------| 
              s 
|-10-10-9-8-10/12-10-----------------------------------------10--| 
|--------------------11-10~---10-13-10-8----8-11-9-10~----10-----| 
|----------------------------------------------------------------| 
|----------------------------------------------------------------| 
|----------------------------------------------------------------| 
|----------------------------------------------------------------| 
                                b   b   b 
|-13^12^10--13^12^10--13^12^10---/---/--/--------------------------| 
|------------------------------12--12--12-12-10-12-10-9-10-12-10-9-| 
|------------------------------------------------------------------| 
|------------------------------------------------------------------| 
|------------------------------------------------------------------| 
|------------------------------------------------------------------| 
 
 
 
|-13-12-10-9-10-12-10-9----9-------------------------------------| 
|-----------------------10---10-12-10-9----9----12---------------| 
|---------------------------------------11---11----11-9----9-----| 
|-------------------------------------------------------11---11--| 
|----------------------------------------------------------------| 
|----------------------------------------------------------------| 
  s 
|-----------------------------9-10~~-----------------------------| 
|--------13-11-10-13-11-10-10------------------------------------| 
|-----10---------------------------------------------------------| 
|-/12------------------------------------------------------------| 
|----------------------------------------------------------------| 
|----------------------------------------------------------------| 

		  

See also:

tabs Bon Jovi - It's My Life tabs Kiss - Forever tabs Aerosmith - Dream On tabs Foo Fighters - Everlong (acústico) tabs The Doors - People Are Strange tabs The Offspring - All I Want
e-chords

Other versions:

tabs Soundtracks - Godfather - Theme tabs Guns N' Roses - Godfather Theme tabs Slash Snakepit - Godfather Theme tabs Slash's Snakepit - Godfather Theme
auto scroll beats size up size down change color hide chords drawings
tab show chords e-chords YouTube Clip e-chords hide all tabs e-chords go to top tab

share