Slash's Snakepit

Something About Your Love

Slash's Snakepit

tabs

by  VSWORLD

save to print version add songbook text version e-mail correct tuner
chordsukulelecavacokeyboardtabbassdrumsharmonicaflute Guitar Pro
close

there isn't a video lesson for this song

chords

Something About Your Love

	  		
Intro/Main riff (fingerstyle): 

    G5      Dm/F     Dm/F    G5 
e|--3-------1-----1--1-------3-----3--------------------------------------| 
B|------------------------------------------------------------------------| 
G|------------------------------------------------------------------------| 
D|-----0-------0--------0-------0-----------------------------------------| 
A|------------------------------------------------------------------------| 
E|--3-------1--------1-------3--------------------------------------------| 
   I was on the outside when the world started spinnin'... 


Now the Chorus rhythm is a bit tough because the two chords are arpeggiated with a constant tempo, 
so think of it as one passage (there is no rest at the chord change). 

Chorus (fingerstyle): 

    Dmadd2/F  Asus4 
e|------0-----------------------------------------------------------------| 
B|--6-------6-5---5-------------------------------------------------------| 
G|----7---9---------------------------------------------------------------| 
D|--------------0-----0---------------------------------------------------| 
A|--8---------0-----0-----------------------------------------------------| 
E|------------------------------------------------------------------------| 
    Something about your love... 


Bridge (fingerstyle): 

    CM          Bm          A#M         Asus4 
e|--3----0------2----0------1----0------0----0----------------------------| 
B|-----------------3-----------3------------------------------------------| 
G|------------------------------------------------------------------------| 
D|-----2-----0-----------0-----------0-----0-----0------------------------| 
A|--3------3----2------2----1------1----0------0--------------------------| 
E|------------------------------------------------------------------------| 

e|--3----0------2----0------1---------------------------------------------| 
B|-----------------3------------------------------------------------------| 
G|------------------------------------------------------------------------| 
D|-----2-----0-----------0------------------------------------------------| 
A|--3------3----2------2--------------------------------------------------| 
E|--------------------------1---------------------------------------------| 


Outro: 

e|------0---0--------------------3----------------------------------------| 
B|--6----------5---5-----5------3-----------------------------------------| 
G|--------7--------------------0------------------------------------------| 
D|----0----------0-----0------0-------------------------------------------| 
A|--8----------0-----0-------2--------------------------------------------| 
E|--------------------------3---------------------------------------------| 



************************************ 

| /   slide up 
| \   slide down 
| h   hammer-on 
| p   pull-off 
| ~   vibrato 
| +   harmonic 
| x   Mute note 
| b   Bend 
| pb  Pre-bend 
| br  Bend release 
| pbr Pre-bend release 
| brb Bend release bend 

************************************ 
		  

Full key step upFull key step up
Half key step upHalf key step up
Half key step downHalf key step down
Full key step downFull key step down
hide glossary

See also:

tabs Bon Jovi - It's My Life tabs Kiss - Forever tabs Aerosmith - Dream On tabs Foo Fighters - Everlong (acústico) tabs The Doors - People Are Strange tabs The Offspring - All I Want
e-chords

Other versions:

tabs Slash's Snakepit - Something About Your Love
auto scroll beats size up size down change color hide chords drawings
tab show chords e-chords YouTube Clip e-chords hide all tabs e-chords go to top tab

share