Slash

Too Far Gone

Slash

tabs Expert expert

by  EDUCASTILHO

save to print version add songbook text version e-mail correct tuner
chordsukulelecavacokeyboardtabbassdrumsharmonicaflute Guitar Pro
close

there isn't a video lesson for this song

chords

Too Far Gone

	  		      H        E  E  E  E     E  E  E  E  H           W                  
 
D#||-----------------------|-----------------------|-------------------| 
A#||-----------------------|-----------------------|-------------------| 
F#||-----------------------|-----------------------|-------------------| 
C#||--4--------------------|-----------2-----------|-------------------| 
G#||--4--------------------|-----0--4--------------|-------------------| 
D#||--2--------2--0--2--0--|--2--------------------|-------------------| 
 


  W                   H        E  E  E  E     E  E  E  E  H          
 
-------------------|-----------------------|-----------------------| 
-------------------|-----------------------|-----------------------| 
-------------------|-----------------------|-----------------------| 
-------------------|--4--------------------|-----------2-----------| 
-------------------|--4--------------------|-----0--4--------------| 
-------------------|--2--------2--0--2--0--|--2--------------------| 
 


 
   W                   H        E  Q.        H        E  E  E  E 
-------------------|---------------------|-----------------------| 
-------------------|---------------------|-----------------------| 
-------------------|---------------------|-----------------------| 
-------------------|---------------------|--4--------------------| 
-------------------|---------------------|--4--------------------| 
-------------------|-----------2--0------|--2--------2--0--2--0--| 
 


  E  E  E  E  H           W                   H         H           
 
-----------------------|-------------------|----------------------| 
-----------------------|-------------------|----------------------| 
-----------------------|-------------------|----------------------| 
-----------2-----------|-------------------|----------------------| 
-----0--4--------------|-------------------|----------------------| 
--2--------------------|-------------------|-----------12\--------| 
 


 
   H        E  E  E  E     E  E  E  E  Q    Q       H        E  E  E  E 
-----------------------|------------------------|-----------------------| 
-----------------------|------------------------|-----------------------| 
-----------------------|------------------------|-----------------------| 
--4--------------------|-----------2-------4----|--L--------------------| 
--4--------------------|-----0--4----------4----|--L--------------------| 
--2--------2--0--2--0--|--2----------------2----|--L--------2--0--2--0--| 
 


  E  E  E  E  Q    Q       H        E  E  E  E     E  E  E  E  Q    Q      
 
------------------------|-----------------------|------------------------| 
------------------------|-----------------------|------------------------| 
------------------------|-----------------------|------------------------| 
-----------2-------2----|--4--------------------|-----------2-------4----| 
-----0--4----------2----|--4--------------------|-----0--4----------4----| 
--2----------------0----|--2--------2--0--2--0--|--2----------------2----| 
 


  H        E  E  E  E     E  E  E  E  Q    Q       W                   
 
-----------------------|------------------------|-------------------|| 
-----------------------|------------------------|-------------------|| 
-----------------------|------------------------|-------------------|| 
--L--------------------|-----------2-------5----|--7----------------|| 
--L--------------------|-----0--4----------5----|--7----------------|| 
--L--------2--0--2--0--|--2----------------3----|--5----------------|| 
		  

See also:

tabs The Offspring - The Kids Aren't Alright tabs Smashing Pumpkins - Today tabs Guns N' Roses - Don't Cry tabs Blue Oyster Cult - Dont Fear The Reaper tabs 4 Non Blondes - What's Up? tabs Aerosmith - Crazy
e-chords

Other versions:

tabs Slash - Too Far Gone tabs The All American Rejects - Too Far Gone (ver. 1) tabs The All American Rejects - Too Far Gone (ver. 2)
auto scroll beats size up size down change color hide chords drawings
tab show chords e-chords YouTube Clip e-chords hide all tabs e-chords go to top tab

share