Slash

Wicked Stone

Slash

tabs Expert expert

by  LUCICAMARGO

save to print version add songbook text version e-mail correct tuner
chordsukulelecavacokeyboardtabbassdrumsharmonicaflute Guitar Pro
close

there isn't a video lesson for this song

chords

Wicked Stone

	  		


Okay, I just download this song and I loved it. I'm trying really hard to play it but 
it's to hard to me. Here are one thing or two that I was able to figure out. I'm not a 
very good guitar player, neither a good tabber (if that word exists). I'm from Brazil,  
and Slash rocks! 


Tuning: Half Step Down 

Intro 
e|-2-0-2-5-4-0-2-0-| 
B|-2-0-2-5-4-0-2-0-| 
G|-----------------| lots of times 
D|-----------------| 
A|-----------------| 
E|-----------------| 

Little thing before changing octaves 
e|-------------------| 
B|-------------------| 
G|-------------------| 
D|-------------------| 
A|-4-2-1-0-1-0-------| 
E|-------------2-0-2-| 

Riff 
e|-----------------|                                   e|-----------------| 
B|-----------------|                                   B|-----------------| 
G|-----------------|                                   G|-------------2---| 
D|-----------------| It ends with something like this  D|-----------2--4--| 
A|-----------------|                                   A|-4-2-0-2-4-------| 
E|-2-0-2-5-4-0-2-0-|                                   E|-----------------| 

The lead in the verse continues with Riff, but the rhythm guitar comes to this 
e|-----------------| 
B|-----------------| 
G|-5------5/4----2-| 
D|-5------5/4----2-| 3x 
A|-3------3/2----0-| 
E|-----------------| 

Goes to the Chorus like this 
e|----------------| 
B|----------------| 
G|-5------5-4-2-6-| 
D|-5------5-4-2-6-| 
A|-3------3-2-0-4-| 
E|----------------| 

Chorus A 
The lead goes 
e|-------------------| 
B|-------------------| 
G|-------------------| 
D|-------------------| 
A|-9-7-9-12-11-7-9-7-| 
E|-------------------| 

The rhythm goes 
e|--------------------------------------------------------| 
B|--------------------------------------------------------| 
G|------7----4----5-4-2--5-4-2------7----4----5-4-2-------| 
D|-4----7----4----5-4-2--5-4-2-4----7----4----5-4-2--2--3-| 
A|-4----5----2----3-2-0--3-2-0-4----5----2----3-2-0--2--3-| 
E|-2---------------------------2---------------------0--1-| 

I couldn't figure what to do with the bridge, but the chords are 
F#m, E, C, D, E 

Do the Riff and then the bridge chords in the solo progression. 

Then the Chorus changes to 
e|--------------------------------------------------------| 
B|--------------------------------------------------------| 
G|-6----2----------------------6----2----------------9-10-| 
D|-6----2----4----5-4-2--5-4-2-6----2----4----5-4-2--9-10-| 
A|-4----0----4----5-4-2--5-4-2-4----0----4----5-4-2--7-8--| 
E|-----------2----3-2-0--3-2-0-----------2----3-2-0-------| 

I think the lead goes 
e|-------------------| 
B|-------------------| 
G|-------------------| 
D|-------------------| 
A|-4-2-4-7-6-2-4-2---| 
E|-------------------| 

Do the Chorus A chords in this new solo and you're done! 


********************************************* 

Sorry for any mistakes, I'm new at this whole making tabs thing. Enjoy the new album and 
rate this, plase! =D 
		  

Full key step upFull key step up
Half key step upHalf key step up
Half key step downHalf key step down
Full key step downFull key step down
hide glossary

See also:

tabs The Offspring - The Kids Aren't Alright tabs Smashing Pumpkins - Today tabs Guns N' Roses - Don't Cry tabs Blue Oyster Cult - Dont Fear The Reaper tabs 4 Non Blondes - What's Up? tabs Aerosmith - Crazy
e-chords

Other versions:

tabs Slash - Wicked Stone
auto scroll beats size up size down change color hide chords drawings
tab show chords e-chords YouTube Clip e-chords hide all tabs e-chords go to top tab

share