Slash

Carolina

Slash

tabs

by  TAMAMOREIRA

save to print version add songbook text version e-mail correct tuner
chordsukulelecavacokeyboardtabbassdrumsharmonicaflute Guitar Pro
close

there isn't a video lesson for this song

chords

Carolina

	  		Introduction: 

 
Eb|---------------------------------------------------------| 
Bb|---------------------------------------------------------| 
Gb|---------------------------------------------------------| 
Db|---------------------------------------------------------| 
Ab|-5-5-5-5h7---7p5-7---5~----------------------------------| x4 
Eb|-----------0-------x-------------------------------------| 
 

The wah blurs the notes a bit, so listen closely to the track - if you've got headphones 
available, stick them in and then take the left ear out. The voicebox is primarily in 
the right ear, so that should help you isolate the part if you can't work out where any 
notes go in future. 

Verse: 

 
Eb|-------|-------------------------------------------------| 
Bb|-------|-------------------------------------------------| 
Gb|-------|-------------------------------------------------| 
Db|-------|--------------------------7---5---7p5h7-5--------| 
Ab|-5-5-5-|-5h7---7p5-7---5~-5-5h7-0---0---0----------0-5h7-| 
Eb|-------|-----0-------x-----------------------------------| 
 
                E5                 A5 

 
Eb|---------------------------------------------------------| 
Bb|---------------------------------------------------------| 
Gb|-------5-5---5-------------------------------------------| 
Db|---5s7---5h7-5-------------------------------------------| 
Ab|-3-------------5-5h7----7---5---7---5-5-5h7--------------| 
Eb|----------------------0---x---0---x----------------------| 
 
   C5                    E5 

I've put the relevant chords from the second verse under the note Slash plays when they 
are played, for any dedicated rhythm guitarists who want to try their hand at this. The 
x on the E is a muted open string - playing a palm-muted open string sounds too heavy 
for the track at those points in my opinion, but I suppose it depends on the rig you're using. 

Chorus: 

 
Eb|-------------------------------------------------------------------------------------------| 
Bb|-------------------------------------------------------------------------------------------| 
Gb|-------------------------------------------------------------------------------------------| 
Db|-------------------------------------------------------------------------------------------| 
Ab|-(b9)8-(b9)8-7-6-7-6-5-5-7-7~-------7-7-8-(b9)(b9)8-8-(b9)(b9)8-8-7-7-6-6-7-7-6-6-5-5-7-7--| x2 
Eb|-7-6-7-6-5-4-5-4-3-3-5-5~-------5-5-6-7-7-6-6-7-7-6-6-5-5-4-4-5-5-4-4-3-3-5-5--------------| 
                                                   PM ----------------------------------------| 
 

Use your index and little finger (if you don't already) as it makes it slightly more 
comfortable moving between semitone 5th chords. 

Bridge: 

 
Eb|------------------------------------------0--------------------------------| 
Bb|-3-3-3-3-3-3-3-3--------------------------0--------------------------------| 
Gb|-2-2-4-2-2-2-4-2-------------------------------1(2)1-----------------------| 
Db|-0-0-0-0-0-0-0-0-----------------------------------------------------------| 
Ab|------------------------------7-7------------------------------------------| 
Eb|------------------2-2-3-3-4-4-5-5-2b3r2-0----0-----------------------------| 
 

The note in brackets is a trill - hammer on and pull off between 1 and 2 as fast as you can. 

 
Eb|------------------------------------------------0----0-----------------------| 
Bb|-3-3-3-3-3-3-3-3---------------4b6r4------------0----0-----------------------| 
Gb|-2-2-4-2-2-2-4-2--7-9b11r(b9)7-2-4b6r4---------------------------------------| 
Db|-0-0-0-0-0-0-0-0---------------------2---------------------------------------| 
Ab|-------------------------------------0---------------------------------------| 
Eb|----------------------------------------2b3r2-0----0-------------------------| 
 

The new bends are quite quiet. They're predominantly in the right ear, so headphone up 
if you can't hear them. 

 
Eb|-------------------------------------------------------------------------------| 
Bb|-------------------------------------------------------------------------------| 
Gb|------------------11-11s10-10s(b9)9s7-7----------------------------------------| 
Db|-------------------------------------------------------------------------------| 
Ab|-4-4-4-4-4-4-4-4--(b9)--9s8---8s7-7s5-5----------------------------------------| 
Eb|-2-2-2-2-2-2-2-2---------------------------------------------------------------| 
PM--------------------------------------------------------------------------------| 
 

Solo Rhythm: 

Play the Chorus again. :P I'm not gonna tab the solo here, because I'm not good enough 
with my ears to do it justice yet. You can improvise in Bm Pentatonic, though you will 
get some clashes with the A#5 in the Chorus, so don't be afraid to branch out to avoid that. 

After the solo rhythm, slide up the neck and down again on the E string, and then play 
the intro riff again. 

Final Chorus: 

Initially the same, but on the 3rd/4th run throughs of the chords (2:39 on the track), 
stop using the 5th chord and use a major third instead. So you get this: 

 
Eb|-------------------------------------------------------------------------------| 
Bb|-------------------------------------------------------------------------------| 
Gb|-------------------------------------------------------------------------------| 
Db|-------------------------------------------------------------------------------| 
Ab|-6-5-6-5-4-3-4-3-2-2-4-4~-------4-4-5-6-6-5-5-6-6-5-5-4-4-3-3-4-4-3-3-2-2-4-4--| x2 
Eb|-7-6-7-6-5-4-5-4-3-3-5-5~-------5-5-6-7-7-6-6-7-7-6-6-5-5-4-4-5-5-4-4-3-3-5-5--| 
                                                   PM ----------------------------| 
 

It can sound scabby if your gain is too high, so be careful with the tone. 

After two cycles with the major 3rd instead of the 5th, Slash brings in this voicebox 
riff as the chords return to their power chord shapes: 

 
Eb|---------------------------------------------------------------------------| 
Bb|---------------------------------------------------------------------------| 
Gb|-------6b7r6-4-------------------------------------------------------------| 
Db|-----4---------7-6-5-3-----------------------------------------------------| 
Ab|---5-------------------5---------------------------------------------------| 
Eb|-7-----------------------3-5-5~-5-5-6-7------------------------------------| 
 

It's all quavers apart from the quick 5-6-7 which gets you back to the starting note to 
play it again, so if you can't quite make it out on the track keep it to that rhythm and 
you should get it. 

End with this: 

 
Eb|----------------| 
Bb|----------------| 
Gb|----------------| 
Db|----------------| 
Ab|-5-5-5-5h7------| 
Eb|-----------0~-0-|  
		  

Full key step upFull key step up
Half key step upHalf key step up
Half key step downHalf key step down
Full key step downFull key step down
hide glossary

See also:

tabs The Doors - People Are Strange tabs Guns N' Roses - November Rain tabs Lenny Kravitz - American Woman tabs 4 Non Blondes - What's Up? tabs Jack Johnson - Sitting Waiting Wishing tabs The Offspring - Come Out and Play
e-chords

Other versions:

tabs Slash - Carolina tabs Devendra Banhart - Carolina tabs Angra - Carolina IV tabs Angra - Carolina IV (ver. 2) tabs Decemberists - Carolina Low tabs Ryan Adams - Carolina rain
auto scroll beats size up size down change color hide chords drawings
tab show chords e-chords YouTube Clip e-chords hide all tabs e-chords go to top tab

share