Simon and Milo

Pretty Girls

Simon and Milo

tabs

by  WEEZER PILLOWS

save to print version add songbook text version e-mail correct tuner
chordsukulelecavacokeyboardtabbassdrumsharmonicaflute Guitar Pro
close

there isn't a video lesson for this song

chords

Pretty Girls

	  		pretty girls by simon and milo 
STANDARD TUNING 
 
intro / Chorus 
e-------------------------- 
b-------------------------- 
g--4--4--------------7--7-- 
d--4--4--4--4--5--5--7--7-- 
a--2--2--4--4--5--5--5--5-- 
e--------2--2--3--3-------- 
 
fill thingy 
e--------------------------------- 
b--------------------------------- 
g--7-7-9---------77-77-77--------- 
d--7-7-9--7--5-7-77-77-77--99-77-- 
a--5-5-7--7--5-7-55-55-55--99-77-- 
e---------5--3-5-----------77-55-- 
 
verse 
e----------------- 
b----------------- 
g--7-------------- 
d--7-x16--9-------x2 
a--5------9-x16-- 
e---------7------- 
 
e---------------- 
b---------------- 
g--7------------- 
d--7-x16--7------ 
a--5------7-x16-- 
e---------5------ 
 
e---------------- 
b---------------- 
g---------------- 
d--5-----7------- 
a--5-x8--7-x8---- 
e--3-----5------- 
 
bridge 
e--3~--2~-- 
b--3~--3~-- 
g--0~--2~-- 
d--0~--0~--x2 
a--2~--0~-- 
e--3~------ 
 
near the end of the song there's a verse n a Chorus 
that is 1 step up so just play the verse and Chorus 2 
frets up. 
 
 
 
 
 

		  

See also:

tabs My Chemical Romance - I Don't Love You tabs Amy Lee ft. Seether - Broken tabs Maroon 5 - Not Coming Home tabs Placebo - Meds tabs Michael Jackson - Beat It (ver. 2) tabs Christopher Cross - Sailing
e-chords

Other versions:

tabs Simon and Milo - Pretty Girls tabs The Smiths - Pretty Girls Make Graves
auto scroll beats size up size down change color hide chords drawings
tab show chords e-chords YouTube Clip e-chords hide all tabs e-chords go to top tab

share