Shinedown

Atmosphere

Shinedown

tabs

by  FAMOUSA

save to print version add songbook text version e-mail correct tuner
chordsukulelecavacokeyboardtabbassdrumsharmonicaflute Guitar Pro
close

there isn't a video lesson for this song

chords

Atmosphere

	  		============================================================================ 
Title: *Atmosphere* 
Artist: Shinedown 
Album: Us and Them 
============================================================================ 
Track: -11- 
============================================================================ 
Label: Atlantic Records 
Tablatured by Asa Gaston 
============================================================================ 
Tuning: Drop-Db ( Db-Ab-Db-Gb-Bb-Eb ) 
============================================================================ 
 
INTRO 
 
Eb:-----------------------------------------------------------\ 
Bb:--------------------9p6-------------------------9p6--------\ 
Gb:-------------------------8p5-------------------------8p5---\ 
Db:-----------------------------------------------------------\ 
Ab:-------------8--6------------------------8--6--------------\ 
Db:---3--8--10--------------------3--8--10--------------------\ 
 
Eb:-----------------------------------------------------------\ 
Bb:--------------------9p6-------------------------9p6--------\ 
Gb:-------------------------8p5-------------------------8p5---\ 
Db:-----------------------------------------------------------\ 
Ab:-------------8--6------------------------8--6--------------\ 
Db:---3--8--10--------------------3--8--10--------------------\ 
 
VERSE 
 
Eb:-----------------------------------------------------------\ 
Bb:--------------------9p6-------------------------9p6--------\ 
Gb:-------------------------8p5-------------------------8p5---\ 
Db:-----------------------------------------------------------\ 
Ab:-------------8--6------------------------8--6--------------\ 
Db:---3--8--10--------------------3--8--10--------------------\ 
 
Eb:-----------------------------------------------------------\ 
Bb:--------------------9p6-------------------------9p6--------\ 
Gb:-------------------------8p5-------------------------8p5---\ 
Db:-----------------------------------------------------------\ 
Ab:-------------8--6------------------------8--6--------------\ 
Db:---3--8--10--------------------3--8--10--------------------\ 
 
Eb:-----------------------------------------------------------\ 
Bb:--------------------9p6-------------------------9p6--------\ 
Gb:-------------------------8p5-------------------------8p5---\ 
Db:-----------------------------------------------------------\ 
Ab:-------------8--6------------------------8--6--------------\ 
Db:---3--8--10--------------------3--8--10--------------------\ 
 
Eb:-----------------------------------------------------------\ 
Bb:--------------------9p6-------------------------9p6--------\ 
Gb:-------------------------8p5-------------------------8p5---\ 
Db:-----------------------------------------------------------\ 
Ab:-------------8--6------------------------8--6--------------\ 
Db:---3--8--10--------------------3--8--10--------------------\ 
 
INTERLUDE 
 
Eb:--------4--6--8--6--4--6p4--------\ 
Bb:---4h6----------------------6p4---\ 
Gb:----------------------------------\ 
Db:----------------------------------\ 
Ab:----------------------------------\ 
Db:----------------------------------\ 
 
Eb:-----------------------------------------------------------\ 
Bb:--------------------9p6-------------------------9p6--------\ 
Gb:-------------------------8p5-------------------------8p5---\ 
Db:-----------------------------------------------------------\ 
Ab:-------------8--6------------------------8--6--------------\ 
Db:---3--8--10--------------------3--8--10--------------------\ 
 
PRE-Chorus 
 
Eb:------------------------\ 
Bb:------6------6------6---\ 
Gb:------------------------\ 
Db:------------------------\ 
Ab:---6------5------4------\ 
Db:------------------------\ 
 
Chorus 
 
Eb:---------------------------------------\ 
Bb:---------------------------------------\ 
Gb:---------------------------------------\ 
Db:---1h3--3--3--6-3---1h3--3--3---3--3---\ 
Ab:---1h3--3--3--6-3---1h3--3--3---3--3---\ 
Db:---1h3--3--3--6-3---1h3--3--3---3--3---\ 
 
Eb:---------------------------------------\ 
Bb:---------------------------------------\ 
Gb:---------------------------------------\ 
Db:---1h3--3--3--6-3---1h3--3--3---3--3---\ 
Ab:---1h3--3--3--6-3---1h3--3--3---3--3---\ 
Db:---1h3--3--3--6-3---1h3--3--3---3--3---\ 
 
Eb:---------------------------------------\ 
Bb:---------------------------------------\ 
Gb:---------------------------------------\ 
Db:---1h3--3--3--6-3---1h3--3--3---3--3---\ 
Ab:---1h3--3--3--6-3---1h3--3--3---3--3---\ 
Db:---1h3--3--3--6-3---1h3--3--3---3--3---\ 
 
Eb:---------------------------------------\ 
Bb:---------------------------------------\ 
Gb:---------------------------------------\ 
Db:---1h3--3--3--6-3---1h3--3--3---3--3---\ 
Ab:---1h3--3--3--6-3---1h3--3--3---3--3---\ 
Db:---1h3--3--3--6-3---1h3--3--3---3--3---\ 
 
INTRO  
 
Eb:-----------------------------------------------------------\ 
Bb:--------------------9p6-------------------------9p6--------\ 
Gb:-------------------------8p5-------------------------8p5---\ 
Db:-----------------------------------------------------------\ 
Ab:-------------8--6------------------------8--6--------------\ 
Db:---3--8--10--------------------3--8--10--------------------\ 
 
Eb:-----------------------------------------------------------\ 
Bb:--------------------9p6-------------------------9p6--------\ 
Gb:-------------------------8p5-------------------------8p5---\ 
Db:-----------------------------------------------------------\ 
Ab:-------------8--6------------------------8--6--------------\ 
Db:---3--8--10--------------------3--8--10--------------------\ 
 
VERSE II 
 
Eb:-----------------------------------------------------------\ 
Bb:--------------------9p6-------------------------9p6--------\ 
Gb:-------------------------8p5-------------------------8p5---\ 
Db:-----------------------------------------------------------\ 
Ab:-------------8--6------------------------8--6--------------\ 
Db:---3--8--10--------------------3--8--10--------------------\ 
 
Eb:-----------------------------------------------------------\ 
Bb:--------------------9p6-------------------------9p6--------\ 
Gb:-------------------------8p5-------------------------8p5---\ 
Db:-----------------------------------------------------------\ 
Ab:-------------8--6------------------------8--6--------------\ 
Db:---3--8--10--------------------3--8--10--------------------\ 
 
Eb:-----------------------------------------------------------\ 
Bb:--------------------9p6-------------------------9p6--------\ 
Gb:-------------------------8p5-------------------------8p5---\ 
Db:-----------------------------------------------------------\ 
Ab:-------------8--6------------------------8--6--------------\ 
Db:---3--8--10--------------------3--8--10--------------------\ 
 
Eb:-----------------------------------------------------------\ 
Bb:--------------------9p6-------------------------9p6--------\ 
Gb:-------------------------8p5-------------------------8p5---\ 
Db:-----------------------------------------------------------\ 
Ab:-------------8--6------------------------8--6--------------\ 
Db:---3--8--10--------------------3--8--10--------------------\ 
 
INTERLUDE II 
 
Eb:---------------------------------------------------------\ 
Bb:---------------------------------------------------------\ 
Gb:---3h5--3h5---1h3--3h5--5--1-----------------------------\ 
Db:------------------------------3--1-----------------------\ 
Ab:------------------------------------1--------------------\ 
Db:----------------------------------------6--3p1--3h6--3---\ 
 
Eb:-----------------------------------------------------------\ 
Bb:--------------------9p6-------------------------9p6--------\ 
Gb:-------------------------8p5-------------------------8p5---\ 
Db:-----------------------------------------------------------\ 
Ab:-------------8--6------------------------8--6--------------\ 
Db:---3--8--10--------------------3--8--10--------------------\ 
 
PRE-Chorus 
 
Eb:------------------------\ 
Bb:------6------6------6---\ 
Gb:------------------------\ 
Db:------------------------\ 
Ab:---6------5------4------\ 
Db:------------------------\ 
 
Chorus 
 
Eb:---------------------------------------\ 
Bb:---------------------------------------\ 
Gb:---------------------------------------\ 
Db:---1h3--3--3--6-3---1h3--3--3---3--3---\ 
Ab:---1h3--3--3--6-3---1h3--3--3---3--3---\ 
Db:---1h3--3--3--6-3---1h3--3--3---3--3---\ 
 
Eb:---------------------------------------\ 
Bb:---------------------------------------\ 
Gb:---------------------------------------\ 
Db:---1h3--3--3--6-3---1h3--3--3---3--3---\ 
Ab:---1h3--3--3--6-3---1h3--3--3---3--3---\ 
Db:---1h3--3--3--6-3---1h3--3--3---3--3---\ 
 
Eb:---------------------------------------\ 
Bb:---------------------------------------\ 
Gb:---------------------------------------\ 
Db:---1h3--3--3--6-3---1h3--3--3---3--3---\ 
Ab:---1h3--3--3--6-3---1h3--3--3---3--3---\ 
Db:---1h3--3--3--6-3---1h3--3--3---3--3---\ 
 
Eb:---------------------------------------\ 
Bb:---------------------------------------\ 
Gb:---------------------------------------\ 
Db:---1h3--3--3--6-3---1h3--3--3---3--3---\ 
Ab:---1h3--3--3--6-3---1h3--3--3---3--3---\ 
Db:---1h3--3--3--6-3---1h3--3--3---3--3---\ 
 
SOLO 
 
Eb:----------------------------------------------------------\ 
Bb:------6-----6------6------6------6------6------6------6---\ 
Gb:----------------------------------------------------------\ 
Db:----------------------------------------------------------\ 
Ab:---6-----5-----4------5------6------5------4------5-------\ 
Db:----------------------------------------------------------\ 
 
Eb:--------------------------------------------------\ 
Bb:---6h8---6--4--1--4h6--6--9p6-----6---9p6-----6---\ 
Gb:-------------------------------8-----------8------\ 
Db:--------------------------------------------------\ 
Ab:--------------------------------------------------\ 
Db:--------------------------------------------------\ 
 
Eb:---------------------------------------------------------\ 
Bb:---9p6-----6---11--9--6-----6--6---13p11--9------9--11---\ 
Gb:--------8----------------8-------------------10----------\ 
Db:---------------------------------------------------------\ 
Ab:---------------------------------------------------------\ 
Db:---------------------------------------------------------\ 
 
Eb:------------------------------------------16p13-------------------------\ 
Bb:---13p11--9--11--9--11h13--11--9-----------------16--13--11h13--16--13--\ 
Gb:----------------------------------10--8---------------------------------\ 
Db:------------------------------------------------------------------------\ 
Ab:------------------------------------------------------------------------\ 
Db:------------------------------------------------------------------------\ 
 
PRE-Chorus 
 
Eb:------------------------\ 
Bb:------6------6------6---\ 
Gb:------------------------\ 
Db:------------------------\ 
Ab:---6------5------4------\ 
Db:------------------------\ 
 
OUTRO Chorus 
 
Eb:-----------------------------------------------------------\ 
Bb:--------------------9p6-------------------------9p6--------\ 
Gb:-------------------------8p5-------------------------8p5---\ 
Db:-----------------------------------------------------------\ 
Ab:-------------8--6------------------------8--6--------------\ 
Db:---3--8--10--------------------3--8--10--------------------\ 
 
Eb:-----------------------------------------------------------\ 
Bb:--------------------9p6-------------------------9p6--------\ 
Gb:-------------------------8p5-------------------------8p5---\ 
Db:-----------------------------------------------------------\ 
Ab:-------------8--6------------------------8--6--------------\ 
Db:---3--8--10--------------------3--8--10--------------------\ 
 
Eb:-----------------------------------------------------------\ 
Bb:--------------------9p6-------------------------9p6--------\ 
Gb:-------------------------8p5-------------------------8p5---\ 
Db:-----------------------------------------------------------\ 
Ab:-------------8--6------------------------8--6--------------\ 
Db:---3--8--10--------------------3--8--10--------------------\ 
 
Eb:-----------------------------------------------------------\ 
Bb:--------------------9p6-------------------------9p6--------\ 
Gb:-------------------------8p5-------------------------8p5---\ 
Db:-----------------------------------------------------------\ 
Ab:-------------8--6------------------------8--6--------------\ 
Db:---3--8--10--------------------3--8--10--------------------\ 
 
GUITAR LEGEND------ 
                  ~ 
h - Hammer-On     ~ 
p - Pull-Off      ~ 
                  ~ 
------------------- 
 
NOTE: Great guitaring once again by Jasin Todd. If he keeps at it like this, 
      he'll be a shoe-en for america greatest guitarist ever lived. Anyway, 
      the intro is really tricky, as well as the solo. Keep playing it, 
      you'll get it down. Well... ...ENJOY!!! 
 
                                              -Asa  
 
 

		  

See also:

tabs Jack Johnson - Good People tabs Rage Against The Machine - Killing In The Name (ver. 2) tabs Blue Oyster Cult - Dont Fear The Reaper tabs R.E.M. - Losing my religion tabs Smashing Pumpkins - Today tabs Foo Fighters - Learn to Fly (acoustic version)
e-chords

Other versions:

tabs Shinedown - Atmosphere
auto scroll beats size up size down change color hide chords drawings
tab show chords e-chords YouTube Clip e-chords hide all tabs e-chords go to top tab

share