Shakey Graves

If Not For You

Shakey Graves

tabs

by  FERNSANTANA

save to print version add songbook text version e-mail correct tuner
chordsukulelecavacokeyboardtabbassdrumsharmonicaflute Guitar Pro
close

there isn't a video lesson for this song

chords

If Not For You

	  		C#|-----------------0--4-----5------------------------------------------------| 
G#|-----------------0--4-----5------------------------------------------------| 
F |-----------------0--4-----5------------------------------------------------| 
C#|-----------------0--4-----5------------------------------------------------| 
G#|-----------------0--4(5)--5------------------------------------------------| 
C#|-----------------0--4-----5------------------------------------------------| 



Intro: 

C#|--------------------4--4-3---------------------4p3----4-3------------------| 
G#|--------------4--5-----------------------4--5------5-----------------------| 
F |---------------------------0-------------0----------------0----------------| 
C#|-----------------------------------------0---------------------------------| 
G#|---0---0-------------------------------------------------------------------| 
C#|-3---4---0--------------------0-3-4-0------------------------0-3-4-0-------| 

C#|-------4--4-3---------------------4p3---4p3---4p3---4p3----3-3-3-3-3-3-3-3-3-------------------| 
G#|-4--5-----------------------4--5------5-----5-----5-----5--0-0-0-0-0-0-0-0-0-------------------| 
F |-0------------0-------------0----------------------------------0-0-0-0-0-0-0-------------------| 
C#|-0--------------------------0--------------------------------------0-0-0-0-0-------------------| 
G#|--------------------------------------------------------------------------------0----2----4----| 
C#|-----------------0-3-4-0-----------------------------------------------------------------------| 



Verse:  

Strum/Pick through the chords  C#(16x)  F(12x)  F#(4x) 
          (you can play almost any notes as long as you hold the chords and it'll sound good) 

The following notes are played while strumming C# (listen to the recording to know when): 

C#|-------------------------|  |--------------------------------------------------| 
G#|-0--2--4--5---0--2--4--5-|  |--------------------------------------------------| 
F |-------------------------|  |--------------------------------------------------| 
C#|-------------------------|  |--------------------------------------------------| 
G#|-------------------------|  |-0--2--4--5---0--2--4--5--------------------------| 
C#|-------------------------|  |--------------------------------------------------| 

On the last time through, play only the bass notes of the F and F# chords: 
C#|---------------------------------------------------------------------------------------------| 
G#|---------------------------------------------------------------------------------------------| 
F |---------------------------------------------------------------------------------------------| 
C#|---4---4---4---4---4---4---4---4---5---5---5---5---5---5---5---5---5---5---5---5----x-x-x-x--| 
G#|---4---4---4---4---4---4---4---4---5---5---5---5---5---5---5---5---5---5---5---5----x-x-x-x--| 
C#|-4---4---4---4---4---4---4---4---5---5---5---5---5---5---5---5---5---5---5---5---5--x-x-x-x--| 



Chorus:  

Strum the C# chord with energy (not actually sure what chord is used here but C# works well enough for me. 
                    If anybody knows what chord it actually is please correct me) 

Same as in the verse, the following notes are played while strumming 

C#|---------------------------------------------------------------------------| 
G#|---------------------------------------------------------------------------| 
F |-2-3-2-0-------------------------------------------------------------------| 
C#|---------0-----------------------------------------------------------------| 
G#|-----------------3--2------------------------------------------------------| 
C#|-----------------------3--0-3--0-3--0--------0-0-3-0-3-3-0-----------------|  
		  

See also:

tabs Misc Computer Games - Chrono Trigger - Corridors Of Time tabs Wye Oak - Civilian tabs Macano - Te Amo tabs Misc Computer Games - Assassins Creed Black Flag - Randy Dandy O tabs Misc Computer Games - Pokemon - Blue/red - Lavender Town tabs Marco Di Mauro - Nada De Nada
e-chords

Other versions:

tabs Great Divide - If Not For You tabs Shakey Graves - If Not For You
auto scroll beats size up size down change color hide chords drawings
tab show chords e-chords YouTube Clip e-chords hide all tabs e-chords go to top tab

share