Secrets

home > Secrets

Fragile Figures (acoustic) Tab

Secrets

Difficulty: nolevelnolevel

by renejunior

tuner correct add songbook print version text version save to e-mail
chordsukulelecavacokeyboardtabbassdrumsharmonicsflute Guitar Pro
chords

Fragile Figures (acoustic)

  		 
 

Intro/Chorus: 

e|--0--0-000--0--000000--0--0--000--000000-------| 
B|--0--0-000--0--000000--0--0--000--000000-------| 
G|--2--2-222--6--666666--4--4--444--444444-------| x2 
D|--2--2-222--6--666666--4--4--444--444444-------| 
A|--0--0-000--4--444444--2--2--222--222222-------| 
E|--x--x-xxx--x--xxxxxx--x--x--xxx--xxxxxx-------| 

Verse: 
             
     Lately...        one...             every...               never... 
e|--0-----------------0------------------0----------------------0------------| 
B|--0-----------------0------------------0----------------------0------------| 
G|--2-----------------6------------------2----------------------6------------| 
D|--2-----------------6------------------2----------------------6------------| 
A|--0-----------------4------------------0----------------------4------------| 
E|--x-----------------x------------------x----------------------x------------| 

                             
 ...help but think            
e|---------------------------------------------------------------------------| 
B|---------------------------------------------------------------------------| 
G|---------------------------------------------------------------------------| 
D|--------9-------9-------9----------------9--------9--------9---------------| x2 
A|----7-------7-------7-------7---7---7--------7--------7--------7---7-------| 
E|--0---0-------0-------0-------0---9---9--------9--------9--------9---------| 
                                            |                           | 
                                            |     (2ND TIME ONLY)       | 
                                            |                           | 
                                           e|----------0000-0-----------| 
                                           B|----------0000-0-----------| 
                                           G|----------9999-9-----------| 
                                           D|----------0000-0-----------| 
                                           A|--7---7---7777-7-----------| 
                                           E|----9-----9999-9-----------| 

Chorus (Slightly Different than intro) 
                     
                                    (2ND TIME ONLY)          
                                           v                                         
e|--0--0-000--0--000000--0--0--000--000000/0-----| 
B|--0--0-000--0--000000--0--0--000--000000/0-----| 
G|--2--2-222--6--666666--4--4--444--444444/6-----| x4 
D|--2--2-222--6--666666--4--4--444--444444/6-----| 
A|--0--0-000--4--444444--2--2--222--222222/4-----| 
E|--x--x-xxx--x--xxxxxx--x--x--xxx--xxxxxx/x-----| 
                                                    Nah 
..long.  Let the hate of the world.....drown me out.   ahh 
                                                          ahh   oohhh.  
e|--0-------------------------------------------0---------------0------------| 
B|--0-------------------------------------------0---------------0------------| 
G|--2-------------------------------------------4---------------4------------| 
D|--2-------------------------------------------6---------------4------------| 
A|--0-------------------------------------------6---------------2------------| 
E|--x-------------------------------------------x---------------x------------| 

(Back to this. It's a little different than before) 

...Help but think                                                 ...Man Im supposed 
e|---------------------------------------------------------------------------00-| 
B|---------------------------------------------------------------------------00-| 
G|---------------------------------------------------------------------------99-| 
D|--------9-------9-------9----------------9--------------------9------------99-| x2 
A|----7-------7-------7-------7---7---7--------7----7-----7---------7-----7--77-| 
E|--0---0-------0-------0-------0---9---9--------9-----9-----7---------9-----99-| 
                                             
                     
*Repeat Chorus                       (2ND TIME ONLY) 
     
..to be.                                   v                                         
e|--0--0-000--0--000000--0--0--000--000000/0-----| 
B|--0--0-000--0--000000--0--0--000--000000/0-----| 
G|--2--2-222--6--666666--4--4--444--444444/6-----| x4 
D|--2--2-222--6--666666--4--4--444--444444/6-----| 
A|--0--0-000--4--444444--2--2--222--222222/4-----| 
E|--x--x-xxx--x--xxxxxx--x--x--xxx--xxxxxx/x-----| 

*Bridge 

 You're the reason I do this for you, not myself. 
  
     (Emphasize these)                           (Listen for these little guys 
                                                  every other time) 
    v   v   v   v   v v     v   v   v   v   v v   v v 
e|--000000000000000-0-0-----000000000000000-0-0--(0-0)------------------------| 
B|--000000000000000-0-0-----000000000000000-0-0--(0-0)------------------------| 
G|--222222222222222-2-2-----666666666666666-6-6--(4-4)------------------------| x4 
D|--222222222222222-2-2-----666666666666666-6-6--(4-4)------------------------|  
A|--000000000000000-0-0-----444444444444444-4-4--(2-2)------------------------| 
E|--xxxxxxxxxxxxxxx-x-x-----xxxxxxxxxxxxxxx-x-x--(0-0)------------------------| 

*Outro                      (2ND TIME ONLY) 
                                           v                                         
e|--0--0-000--0--000000--0--0--000--000000/0-----| 
B|--0--0-000--0--000000--0--0--000--000000/0-----| 
G|--2--2-222--6--666666--4--4--444--444444/6-----| x4 
D|--2--2-222--6--666666--4--4--444--444444/6-----| 
A|--0--0-000--4--444444--2--2--222--222222/4-----| 
E|--x--x-xxx--x--xxxxxx--x--x--xxx--xxxxxx/x-----| 

...long 
e|--0------| 
B|--0------| 
G|--2------| 
D|--2------| 
A|--0------| 
E|--x------| 

************************************ 

| /   slide up 
| \   slide down 
| h   hammer-on 
| p   pull-off 
| ~   vibrato 
| +   harmonic 
| x   Mute note 
| b   Bend 
| pb  Pre-bend 
| br  Bend release 
| pbr Pre-bend release 
| brb Bend release bend 

************************************ 
	  

Search Paypal
auto scroll beats size up size down change color hide chords drawings
tab show chords e-chords YouTube Clip e-chords hide all tabs e-chords go to top tab