Screamfeeder

Ice Patrol

Screamfeeder

tabs

save to print version add songbook text version e-mail correct tuner
chordsukulelecavacokeyboardtabbassdrumsharmonicaflute Guitar Pro
close

there isn't a video lesson for this song

chords

Ice Patrol

	  		Tuning:         Dropped, D  
 
 
The main riff took me ages, i hope it actually sounds right 
 
 
Intro clean and let each note ring (dont know about this) 
e----------------------------- 
B----------------------------- 
G----------------------------- 
D-------7---------9---------12 
A----5---------7---------9---- 
D-5---------7---------9------- 
 
 
 
Verse 1 
Main riff - clean and let each note ring 
e--------------------------------------- 
B--------------------------------------- 
G--------------------------------------- 
D-------9---------12--------7----7------ 
A----7---------9---------4---/5--------- 
D-7---------9---------4---/5------------ 
 
 
  I'm on Ice Patrol,  
            I'm looking out for ways we could be  
                      crushed 
  I fly above the secret sea checking out what we can't trust 
  controling my balance isn't instinctual I must remember to really try 
  I feel if I move I'll fall like I've been shaken loose inside 
 
 
 
Distorted break 
e-------------------------------------------------- 
B-------------------------------------------------- 
G-5-5-5/-7-7--------------------------------------- 
D-5-5-5/-7-7---5-5-5/-7-7---5-5-5/-7-7------------- 
A-3-3-3/-5-5---5-5-5/-7-7---5-5-5/-7-7------------- 
D--------------5-5-5/-7-7---5-5-5/-7-7------------- 
 
 
e-------------------------------------------------------- 
B-------------------------------------------------------- 
G-5-5-5/-7-7---5-5-5/-7-7-------------------------------- 
D-5-5-5/-7-7---5-5-5/-7-7---5-5-5-7-7---5-5-5/-7-7--7/-5- 
A-3-3-3/-5-5---3-3-3/-5-5---5-5-5-7-7---5-5-5/-7-7--7/-5- 
D---------------------------5-5-5-7-7---5-5-5/-7-7--7/-5- 
 
 
Verse 2 
Main riff - clean and let each note ring 
e--------------------------------------- 
B--------------------------------------- 
G--------------------------------------- 
D-------9---------12--------7----7------ 
A----7---------9---------4---/5--------- 
D-7---------9---------4---/5------------ 
 
 
  trying to remember a dream that died  
  the moment I awake I'm watching it dissolve a split second at a time 
  here's my paper back I wrote my name but then I changed my mind 
  I want to go where there are no dreams 
 
 
e----------------------2------------ 
B----------------------3------------ 
G----------------------2------------ 
D---2---------------5--0------------ 
A---2---------------5--0------------ 
D---2---------------5--0------------ 
 
 
    Where there are no dreams x 3 
 
 
e---------------------------------- 
B---------------------------------- 
G---------------------------------- 
D---2---------------4--5----------- 
A---2---------------4--5----------- 
D---2---------------4--5----------- 
 
 
    Where there are no dreams (back to verse) 
 
 
 
Verse 3 
Main riff - clean and let each note ring 
e--------------------------------------- 
B--------------------------------------- 
G--------------------------------------- 
D-------9---------12--------7----7------ 
A----7---------9---------4---/5--------- 
D-7---------9---------4---/5------------ 
 
 
by the water's edge we watch the icebergs flow 
they can kill us in a blink although they move so slow 
we tried to shoot them up and bomb them and we painted them black 
they didn't break or melt or even  
 
 
 
Palm muted prechorus 
e-------------------------------------------------------------------- 
B-------------------------------------------------------------------- 
G-------------------------------------------------------------------- 
D-----4---------5-----7-----------------0-----------5-----7---------- 
A-----4---------5-----7-----------------0-----------5-----7---------- 
D-----4---------5-----7-----------------0-----------5-----7---------- 
   
    Acknowledge our attack              Acknowledge our attack 
 
 
 
Verse 4  
Main riff - DISTORTED and funny timing (compared with rest of song) 
e--------------------------------- 
B--------------------------------- 
G--------------------------------- 
D-9---------12--------7----7------ 
A-7---------9---------4----5------ 
D-7---------9---------4----5------ 
 
 
by the water's edge we watch the icebergs flow 
they can kill us in a blink 
we tried to shoot them we painted them black 
they did not acknlowledge our attack 
 
 
 
Verse 5 
Main riff - DISTORTED and let each note ring 
e--------------------------------------- 
B--------------------------------------- 
G--------------------------------------- 
D-------9---------12--------7----7------ 
A----7---------9---------4---/5--------- 
D-7---------9---------4---/5------------ 
 
 
 
the biggest things move slowly you don't notice them arrive 
they'll dispatch some danger and they'll sail on by 
on patrol there's too much to know I've got too little to lose 
 
 
Palm muted til D     
e-----------------------------------2--------------- 
B-----------------------------------3--------------- 
G-----------------------------------2--------------- 
D-2-----------4------------------5--0--------------- 
A-2-----------4------------------5--0--------------- 
D-2-----------4------------------5--0--------------- 
 
 
  I want to know where there are no dreams 
  I want to go where there are no dreams 
 
 
e----------------------2------------ 
B----------------------3------------ 
G----------------------2------------ 
D---2---------------5--0------------ 
A---2---------------5--0------------ 
D---2---------------5--0------------ 
 
 
    Where there are no dreams x 3 
 
 
e---------------------------------- 
B---------------------------------- 
G---------------------------------- 
D---2---------------4--5----------- 
A---2---------------4--5----------- 
D---2---------------4--5----------- 
 
 
    Where there are no dreams  
 
 
 
Finish on distorted break 
e-------------------------------------------------- 
B-------------------------------------------------- 
G-5-5-5/-7-7--------------------------------------- 
D-5-5-5/-7-7---5-5-5/-7-7---5-5-5/-7-7---7/-5------ 
A-3-3-3/-5-5---5-5-5/-7-7---5-5-5/-7-7---7/-5------ 
D--------------5-5-5/-7-7---5-5-5/-7-7---7/-5------ 

		  

Full key step upFull key step up
Half key step upHalf key step up
Half key step downHalf key step down
Full key step downFull key step down
hide glossary

See also:

tabs Powderfinger - Love Your Way tabs Midnight Oil - Hercules tabs John Butler Trio - Ocean tabs Thirsty Merc - Someday, Someday tabs Lee Kernaghan - High Country Solo tabs The Skyhooks - Living In The 70s
e-chords

Other versions:

tabs Screamfeeder - Ice Patrol
auto scroll beats size up size down change color hide chords drawings
tab show chords e-chords YouTube Clip e-chords hide all tabs e-chords go to top tab

share