Screamfeeder

Hi C's

Screamfeeder

tabs

save to print version add songbook text version e-mail correct tuner
chordsukulelecavacokeyboardtabbassdrumsharmonicaflute Guitar Pro
close

there isn't a video lesson for this song

chords

Hi C's

	  		
STANDARD TUNING (eBGDAE) 
INTRO 
|---------------------------------------------------| 
|---------------------------------------------------| 
|-4-4-4-4-4-4-4-4-------------------2-2-2-2-2-2-2-2-| 
|-4-4-4-4-4-4-4-4--2-2-2-2-2-2-2-2--2-2-2-2-2-2-2-2-| 
|-2-2-2-2-2-2-2-2--2-2-2-2-2-2-2-2--0-0-0-0-0-0-0-0-| 
|------------------0-0-0-0-0-0-0-0------------------| 
 
BASS BIT 
D|-----------------| 
A|-2-2-0-0-4-4-0-0-| 
E|-----------------| 
 
VERSE (same) 
|---------------------------------------------------| 
|---------------------------------------------------| 
|-4-4-4-4-4-4-4-4-------------------2-2-2-2-2-2-2-2-| 
|-4-4-4-4-4-4-4-4--2-2-2-2-2-2-2-2--2-2-2-2-2-2-2-2-| 
|-2-2-2-2-2-2-2-2--2-2-2-2-2-2-2-2--0-0-0-0-0-0-0-0-| 
|------------------0-0-0-0-0-0-0-0------------------| 
 
VARIATION OF VERSE 
|---------------------------------------------------| 
|---------------------------------------------------| 
|-7-7-7-7-7-7-7-7--2-2-2-2-2-2-2-2------------------| 
|-7-7-7-7-7-7-7-7--2-2-2-2-2-2-2-2--2-2-2-2-2-2-2-2-| 
|-5-5-5-5-5-5-5-5--0-0-0-0-0-0-0-0--2-2-2-2-2-2-2-2-| 
|-----------------------------------0-0-0-0-0-0-0-0-| 
 
|---------------------------------------------------| 
|---------------------------------------------------| 
|-7-7-7-7-7-7-7-7-----------------------------------| 
|-7-7-7-7-7-7-7-7--5-5-5-5-5-5-5-5--4-4-4-4-4-4-4-4-| 
|-5-5-5-5-5-5-5-5--5-5-5-5-5-5-5-5--4-4-4-4-4-4-4-4-| 
|------------------3-3-3-3-3-3-3-3--2-2-2-2-2-2-2-2-| 
 
beepy bit 
e|-------------7\2-| 
B|-7-7-7-7-7-7-----| 
G|-----------------| 
 
BRIDGE 
|-----------------------| 
|-----------------------| 
|-9-9-9-9-9---2-2-2-2-2-| 
|-9-9-9-9-9---2-2-2-2-2-| 
|-7-7-7-7-7---0-0-0-0-0-| 
|-----------------------| 
 
SOLO 
e|-------2-----| 
B|-0-2-3---4-5-| play many times 
G|-------------| 
 
 
 

		  

See also:

tabs Powderfinger - Love Your Way tabs Midnight Oil - Hercules tabs John Butler Trio - Ocean tabs Thirsty Merc - Someday, Someday tabs Lee Kernaghan - High Country Solo tabs The Skyhooks - Living In The 70s
e-chords

Other versions:

tabs Screamfeeder - Hi C's
auto scroll beats size up size down change color hide chords drawings
tab show chords e-chords YouTube Clip e-chords hide all tabs e-chords go to top tab

share