San Cisco

B Side

San Cisco

tabs

by  TERR_SCHMITZ

save to print version add songbook text version e-mail correct tuner
chordsukulelecavacokeyboardtabbassdrumsharmonicaflute Guitar Pro
close

there isn't a video lesson for this song

chords

B Side

	  		
1# Guitar: 

E|---------------------------------------------| 
B|---------------------------------------------| 
G|---------------------------------------------| 
D|--12|||-9-7-7|||-9-----------7-----7---------| 
A|-------------------9-5-5h7h9---7h9-----------| 
E|-------------------------------------7-------| 


2# Guitar: 

E|---------------------------------------------| 
B|---------------------------------------------| 
G|-12----12----11----11----9----9----9----9----| 
D|----12----12----12----12----9----9----9----9-| 
A|---------------------------------------------| 
E|---------------------------------------------| 

Solo: 
E|-------------------------------------------12-------------------| 
B|---------6^7-6^7-6^7-3(p)4----------7--10------10-7/5-----------| 
G|-----7h9------------------------7h9-------------------7---------| 
D|-7h9------------------------7h9---------------------------7-----| 
A|--------------------------------------------------------------5-| 
E|----------------------------------------------------------------| 
		  

See also:

tabs 5 Seconds Of Summer - Mrs All American tabs San Cisco - Magic tabs Pond - Gringolets Drunken Baggage tabs 5 Seconds Of Summer - Teenage Dream tabs Jayesslee - Failure In Disguise tabs San Cisco - Awkward
e-chords

Other versions:

tabs San Cisco - B Side
auto scroll beats size up size down change color hide chords drawings
tab show chords e-chords YouTube Clip e-chords hide all tabs e-chords go to top tab

share