Sam Hunt

House Party

Sam Hunt

tabs Beginner beginner

by  HUGO_RODRIGUES

save to print version add songbook text version e-mail correct tuner
chordsukulelecavacokeyboardtabbassdrumsharmonicaflute Guitar Pro
close

there isn't a video lesson for this song

chords

House Party

	  		

First tab so please let me know any suggestions to formatting etc... 

The entire song just repeats these chords.  The timing is pretty straight forward.  

Intro/Bridge Solo: 

e|---------------------------------------------------------------------------| 
B|-8---6---4---6/8---8---6---4---8---6---4---11---8---11---8---6---6---4---4-| 
G|---------------------------------------------------------------------------| 
D|---------------------------------------------------------------------------| 
A|---------------------------------------------------------------------------| 
D|---------------------------------------------------------------------------| 

Guitar 1: 

e|---------------------------------------------------------------------------| 
B|---------------------------------------------------------------------------| 
G|--8---7---8------8---7----------5---7---8------8---7-----------------------| 
D|--8---8---8------8---8---1------5---8---8------8---8---1-------------------| 
A|--6---5---6------6---5---1------3---5---6------6---5---1-------------------| 
D|------5---6------6---5---1----------5---6------6---5---1-------------------| 

Guitar 2:  

They just play a variation of this chord throughout usually towards the end of  
each verse and during the bridge. Just play with the "e" string. 

e|--6------------------------------------------------------------------------| 
B|--8------------------------------------------------------------------------| 
G|--8------------------------------------------------------------------------| 
D|--8------------------------------------------------------------------------| 
A|--6------------------------------------------------------------------------| 
D|---------------------------------------------------------------------------| 

Hope this helps and enjoy! 

************************************ 

| /   slide up 
| \   slide down 
| h   hammer-on 
| p   pull-off 
| ~   vibrato 
| +   harmonic 
| x   Mute note 
| b   Bend 
| pb  Pre-bend 
| br  Bend release 
| pbr Pre-bend release 
| brb Bend release bend 

************************************ 
		  

auto scroll beats size up size down change color hide chords drawings
tab show chords e-chords YouTube Clip e-chords hide all tabs e-chords go to top tab

share