Robert Plant

Turn It Up

Robert Plant

tabs

by  CARLLUZ

save to print version add songbook text version e-mail correct tuner
chordsukulelecavacokeyboardtabbassdrumsharmonicaflute Guitar Pro
close

there isn't a video lesson for this song

chords

Turn It Up

	  		
INTRODUCTION (palm mute each note) 
e|----------------------|----------------------|----------------------|----------------------| 
B|----------------------|----------------------|----------------------|----------------------| 
G|----------------------|----------------------|----------------------|----------------------| 
D|-/7-/7----/7-/7----/7-|-/7-/7----/7-/7----/7-|-/7-/7----/7-/7----/7-|-/7-/7----/7-/7----/7-| 
A|----------------------|----------------------|----------------------|----------------------| 
E|----------------------|----------------------|----------------------|----------------------| 


verse 1                                                                                          
e|----------------------|----------------------|----------------------|----------------------| 
B|----------------------|----------------------|----------------------|----------------------| 
G|----------------------|----------------------|----------------------|----------------------|  x2 
D|-/7-/7----/7-/7----/7-|-/7-/7----/7-/7----/7-|-/7-/7----/7-/7----/7-|-/7-/7----/7-/7----/7-| 
A|----------------------|----------------------|----------------------|----------------------| 
E|----------------------|----------------------|----------------------|----------------------| 


Chorus 
e|----------------------|----------------------|----------------------|----------------------| 
B|----------------------|----------------------|----------------------|----------------------| 
G|----------------------|----------------------|----------------------|----------------------| 
D|--4---4-4---7-----4-4-|----------------------|--4---4-4---7-----4-4-|----------------------| 
A|--4---4-4---7-----4-4-|----------------------|--4---4-4---7-----4-4-|----------------------| 
E|--2---2-2---5-----2-2-|----------------------|--2---2-2---5-----2-2-|----------------------| 


verse 2                                                                  
e|----------------------|----------------------|----------------------|----------------------| 
B|----------------------|----------------------|----------------------|----------------------| 
G|----------------------|----------------------|----------------------|----------------------|  x2 
D|-/7-/7----/7-/7----/7-|-/7-/7----/7-/7----/7-|-/7-/7----/7-/7----/7-|-/7-/7----/7-/7----/7-| 
A|----------------------|----------------------|----------------------|----------------------| 
E|----------------------|----------------------|----------------------|----------------------| 


Chorus 
e|----------------------|----------------------|----------------------|----------------------| 
B|----------------------|----------------------|----------------------|----------------------| 
G|----------------------|----------------------|----------------------|----------------------| 
D|--4---4-4---7-----4-4-|----------------------|--4---4-4---7-----4-4-|----------------------| 
A|--4---4-4---7-----4-4-|----------------------|--4---4-4---7-----4-4-|----------------------| 
E|--2---2-2---5-----2-2-|----------------------|--2---2-2---5-----2-2-|----------------------| 

e|----------------------|----------------------|----------------------|----------------------| 
B|----------------------|----------------------|----------------------|----------------------| 
G|----------------------|----------------------|----------------------|----------------------|  x2 
D|--4---4-4---7-----4-4-|-9--4---10--4---10-11-|--4---4-4---7-----4-4-|-9--4---10--4---10-11-| 
A|--4---4-4---7-----4-4-|-9--4---10--4---10-11-|--4---4-4---7-----4-4-|-9--4---10--4---10-11-| 
E|--2---2-2---5-----2-2-|-7--2----8--2----8--9-|--2---2-2---5-----2-2-|-7--2----8--2----8--9-| 

  
GUITAR SOLO (the first three notes overlap with the last bar of the previous Chorus) 
e|------------|----------------------|----------------------|----------------------| 
B|-10-10-10~--|-7-7-7~---7h10p7------|----------------------|----------------------| 
G|------------|----------------9-6~--|-------------9-9~-----|----------------------| 
D|------------|----------------------|-9-7------------------|-9h10p9p7-9-7---------| 
A|------------|----------------------|-----9~---------------|--------------9-7-9-9-| 
E|------------|----------------------|----------------------|----------------------| 

e|----------------------|----------------------|----------------------|----------------------| 
B|----------------------|----------------------|----------------------|----------------------| 
G|----------------------|----------------------|----------------------|----------------------| 
D|------------4g7-7~----|-4g7-7~-----4g7-7~----|-4g7-7~---------------|-4---4---4---4-----4--| 
A|-9~-------------------|----------------------|----------------------|-----------------0----| 
E|----------------------|----------------------|----------------------|2---2---2---2---------| 

e|----------------------|----------------------|----------------------|----------------------| 
B|-----7-7---10-10-10~--|-7g10-10~--7g10p7-7g10|-7---7--------7-----7-|-----7----------------| 
G|-6-9------------------|----------------------|---9------9b11--9b11--|-9b11-11brb9--6-------| 
D|----------------------|----------------------|----------------------|----------------9-7---| 
A|----------------------|----------------------|----------------------|----------------------| 
E|----------------------|----------------------|----------------------|----------------------| 

e|----------------------|----------------------|----------------------|----------------------| 
B|----------------------|----------------------|----------------------|----------------------| 
G|-----9----------------|----------------------|----------------------|----------------------| 
D|-9b11-9b11br9-7h9p7---|----------------------|----------------------|----------------------| 
A|-------------------9-7|-9~-(let ring)--------|----------------------|----------------------| 
E|----------------------|----------------------|----------------------|----------------------| 


verse 3                                                                  
e|----------------------|----------------------|----------------------|----------------------| 
B|----------------------|----------------------|----------------------|----------------------| 
G|----------------------|----------------------|----------------------|----------------------|  x2 
D|-/7-/7----/7-/7-------|-/7-/7----/7-/7-------|-/7-/7----/7-/7-------|-/7-/7----/7-/7-------| 
A|----------------------|----------------------|----------------------|----------------------| 
E|----------------------|----------------------|----------------------|----------------------| 


INTERLUDE (2 BAR TACET)                                                                  
e|----------------------|----------------------| 
B|----------------------|----------------------| 
G|----------------------|----------------------| 
D|----------------------|----------------------| 
A|----------------------|----------------------| 
E|----------------------|----------------------| 


verse 4                                                                  
e|----------------------|----------------------|----------------------|----------------------| 
B|----------------------|----------------------|----------------------|----------------------| 
G|----------------------|----------------------|----------------------|----------------------|  x2 
D|-/7-/7----/7-/7----/7-|-/7-/7----/7-/7----/7-|-/7-/7----/7-/7----/7-|-/7-/7----/7-/7----/7-| 
A|----------------------|----------------------|----------------------|----------------------| 
E|----------------------|----------------------|----------------------|----------------------| 


Chorus 
e|----------------------|----------------------|----------------------|----------------------| 
B|----------------------|----------------------|----------------------|----------------------| 
G|----------------------|----------------------|----------------------|----------------------| 
D|--4---4-4---7-----4-4-|----------------------|--4---4-4---7-----4-4-|----------------------| 
A|--4---4-4---7-----4-4-|----------------------|--4---4-4---7-----4-4-|----------------------| 
E|--2---2-2---5-----2-2-|----------------------|--2---2-2---5-----2-2-|----------------------| 

e|----------------------|----------------------|----------------------|----------------------| 
B|----------------------|----------------------|----------------------|----------------------| 
G|----------------------|----------------------|----------------------|----------------------|  x2 
D|--4---4-4---7-----4-4-|-9--4---10--4---10-11-|--4---4-4---7-----4-4-|-9--4---10--4---10-11-| 
A|--4---4-4---7-----4-4-|-9--4---10--4---10-11-|--4---4-4---7-----4-4-|-9--4---10--4---10-11-| 
E|--2---2-2---5-----2-2-|-7--2----8--2----8--9-|--2---2-2---5-----2-2-|-7--2----8--2----8--9-| 
                                         
e|----------------------|----------------------| 
B|----------------------|----------------------| 
G|----------------------|----------------------| 
D|----------------------|----------------------| 
A|----------------------|----------------------| 
E|----------------------|----------------------| 

e|----------------------|----------------------|----------------------|----------------------| 
B|----------------------|----------------------|----------------------|----------------------| 
G|----------------------|----------------------|----------------------|----------------------|  x2 
D|--4---4-4---7-----4-4-|-9--4---10--4---10-11-|--4---4-4---7-----4-4-|-9--4---10--4---10-11-| 
A|--4---4-4---7-----4-4-|-9--4---10--4---10-11-|--4---4-4---7-----4-4-|-9--4---10--4---10-11-| 
E|--2---2-2---5-----2-2-|-7--2----8--2----8--9-|--2---2-2---5-----2-2-|-7--2----8--2----8--9-| 


OUTRO 
e|----------------------|----------------------|----------------------|----------------------| 
B|----------------------|----------------------|----------------------|----------------------| 
G|----------------------|----------------------|----------------------|----------------------| 
D|--4---4-4---7-----4-4-|----------------------|----------------------|----------------------| 
A|--4---4-4---7-----4-4-|----------------------|----------------------|----------------------| 
E|--2---2-2---5-----2-2-|----------------------|----------------------|----------------------|  
		  

See also:

tabs Yes - Roundabout tabs Dire Straits - Sultans of Swing tabs Deep Purple - Smoke On The Water (Easy Intro) tabs The Shadows - Apache tabs The Beatles - And i love her(guitar full version) tabs Eric Clapton - Layla
e-chords

Other versions:

tabs Robert Plant - Turn It Up
auto scroll beats size up size down change color hide chords drawings
tab show chords e-chords YouTube Clip e-chords hide all tabs e-chords go to top tab

share