Ricky Nelson

home > Ricky Nelson

Hello Mary Lou Tab

Ricky Nelson

Difficulty: EasyEasy

tuner correct add songbook print version text version save to e-mail
chordsukulelecavacokeyboardtabbassdrumsharmonicsflute Guitar Pro
chords

Hello Mary Lou

  		 
Gene Pitney & Cayet Mangiaracina 
 
Lead Guitar 
 
E||------------------|------------------|-----------------------| 
B||------------------|------------------|-------5--5----7p-5----| 
G||------------------|------------------|-------6--6------------| 
D||------------------|------------------|-----------------------| 
A||------------------|------------------|--0--------------------| 
E||------------------|------------------|-----------------------| 
 
 
                                                                         
-----------------------|-----------------------|-----------------------| 
-------5--5----7p-5----|-------5--5----7p-5----|-------5--5----7p-5----| 
-------6--6------------|-------6--6------------|-------6--6------------| 
-----------------------|-----------------------|-----------------------| 
--0--------------------|--0--------------------|--0--------------------| 
-----------------------|-----------------------|-----------------------| 
 
 
                                                                         
-----------------------|-----------------------|-------5--5----7p-5----| 
-------5--5----7p-5----|-------5--5----7p-5----|-------7--7------------| 
-------6--6------------|-------6--6------------|-----------------------| 
-----------------------|-----------------------|--0--------------------| 
--0--------------------|--0--------------------|-----------------------| 
-----------------------|-----------------------|-----------------------| 
 
 
                                                                         
-------5--5----7p-5----|-----------------------|-----------------------| 
-------7--7------------|-------5--5----7p-5----|-------5--5----7p-5----| 
-----------------------|-------6--6------------|-------6--6------------| 
--0--------------------|-----------------------|-----------------------| 
-----------------------|--0--------------------|--0--------------------| 
-----------------------|-----------------------|-----------------------| 
 
 
                                                                         
-----------------------|-----------------------|-----------------------| 
-----------------------|-----------------------|-------5--5----7p-5----| 
-------4--4----6p-4----|-------4--4----6p-4----|-------6--6------------| 
-------6--6------------|-------6--6------------|-----------------------| 
-----------------------|-----------------------|--0--------------------| 
--0--------------------|--0--------------------|-----------------------| 
 
 
                                                                         
-----------------------|-----------------------|-----------------------| 
-------5--5----7p-5----|--2--------------------|--2------------2-------| 
-------6--6------------|--4-------4----6--4----|--2-------2-------2----| 
-----------------------|--3----3---------------|--4----4---------------| 
--0--------------------|-----------------------|-----------------------| 
-----------------------|-----------------------|-----------------------| 
 
 
                                                                         
-----------------------|-----------------------|-----------------------| 
--4------------4-------|--5------------5-------|--5---------7--7----5--| 
--2-------2-------2----|--7-------7-------7----|--6---------7--7----6--| 
--4----4---------------|--6----6---------------|-----------------------| 
-----------------------|-----------------------|-------0---------------| 
-----------------------|-----------------------|-----------------------| 
 
 
                                                                       
---------------------|-----------------------|-----------------------| 
---------------------|-------5--5----7p-5----|-------5--5----7p-5----| 
---------------------|-------6--6------------|-------6--6------------| 
---------------------|-----------------------|-----------------------| 
---------------------|--0--------------------|--0--------------------| 
------0----2----4----|-----------------------|-----------------------| 
 
 
                                                                         
-------5--5----7p-5----|-------5--5----7p-5----|-----------------------| 
-------7--7------------|-------7--7------------|-------5--5----7p-5----| 
-----------------------|-----------------------|-------6--6------------| 
--0--------------------|--0--------------------|-----------------------| 
-----------------------|-----------------------|--0--------------------| 
-----------------------|-----------------------|-----------------------| 
 
 
                                                                         
-----------------------|-----------------------|-----------------------| 
-------5--5----7p-5----|-----------------------|-----------------------| 
-------6--6------------|-------4--4----6p-4----|-------4--4----6p-4----| 
-----------------------|-------6--6------------|-------6--6------------| 
--0--------------------|-----------------------|-----------------------| 
-----------------------|--0--------------------|--0--------------------| 
 
 
                                                                         
-----------------------|-----------------------|-------5--5----7p-5----| 
-------5--5----7p-5----|-------5--5----7p-5----|-------7--7------------| 
-------6--6------------|-------6--6------------|-----------------------| 
-----------------------|-----------------------|--0--------------------| 
--0--------------------|--0--------------------|-----------------------| 
-----------------------|-----------------------|-----------------------| 
 
 
                                                                              
-------5--5----7p-5----|-----------------------|----|-----------------------| 
-------7--7------------|-------5--5----7p-5----|----|--5---------7--7----5--| 
-----------------------|-------6--6------------|----|--6---------7--7----6--| 
--0--------------------|-----------------------|----|-----------------------| 
-----------------------|--0--------------------|----|-------0---------------| 
-----------------------|-----------------------|----|-----------------------| 
 
 
                                                                       
---------------------|-----------------------|-----------------------| 
---------------------|-------5--5----7p-5----|-------5--5----7p-5----| 
---------------------|-------6--6------------|-------6--6------------| 
---------------------|-----------------------|-----------------------| 
---------------------|--0--------------------|--0--------------------| 
------0----2----4----|-----------------------|-----------------------| 
 
 
                                                                         
-------5--5----7p-5----|-------5--5----7p-5----|-----------------------| 
-------7--7------------|-------7--7------------|-------5--5----7p-5----| 
-----------------------|-----------------------|-------6--6------------| 
--0--------------------|--0--------------------|-----------------------| 
-----------------------|-----------------------|--0--------------------| 
-----------------------|-----------------------|-----------------------| 
 
 
                                                                         
-----------------------|-----------------------|-----------------------| 
-------5--5----7p-5----|-----------------------|-----------------------| 
-------6--6------------|-------4--4----6p-4----|-------4--4----6p-4----| 
-----------------------|-------6--6------------|-------6--6------------| 
--0--------------------|-----------------------|-----------------------| 
-----------------------|--0--------------------|--0--------------------| 
 
 
                                                                         
-----------------------|-----------------------|-----------------------| 
-------5--5----7p-5----|-------5--5----7p-5----|--2--------------------| 
-------6--6------------|-------6--6------------|--4-------4----6--4----| 
-----------------------|-----------------------|--3----3---------------| 
--0--------------------|--0--------------------|-----------------------| 
-----------------------|-----------------------|-----------------------| 
 
 
                                                                         
-----------------------|-----------------------|-----------------------| 
--2------------2-------|--4------------4-------|--5------------5-------| 
--2-------2-------2----|--2-------2-------2----|--7-------7-------7----| 
--4----4---------------|--4----4---------------|--6----6---------------| 
-----------------------|-----------------------|-----------------------| 
-----------------------|-----------------------|-----------------------| 
 
 
                                                                       
-----------------------|---------------------|-------5-------5-------| 
--5---------7--7----5--|---------------------|-----------------------| 
--6---------7--7----6--|---------------------|----------6-------6----| 
-----------------------|---------------------|-----------------------| 
-------0---------------|---------------------|--0--------------------| 
-----------------------|------0----2----4----|-----------------------| 
 
 
                                                                         
--3--2----0------------|-----------------------|-----------------------| 
---------------2-------|-------7--5------------|--7--5-----------------| 
------------------2----|-------5-------5p-4----|--5-------5p-4--2------| 
-----------------------|-----------------------|-----------------------| 
-----------------------|--0--------------------|-----------------------| 
-----------------------|-----------------------|-----------------------| 
 
 
                                                                        
-------5-------5-------|--5------3--2----------|-------0-------0------| 
-----------------------|---------------2-------|----------3-----------| 
----------6-------6----|------------------2----|----------------------| 
-----------------------|-----------------------|----------------------| 
--0--------------------|-----------------------|----------------------| 
-----------------------|-----------------------|--0-------------------| 
 
 
                                                                        
--0-------0-----------|-------0----2r------0--|----2----------2-------| 
-----3---------3------|-----------------------|----------2------------| 
----------------------|-----------------2-----|-------2----------2----| 
----------------------|-----------------------|-----------------------| 
----------------------|--0--------------------|-----------------------| 
----------------------|-----------------------|-----------------------| 
 
 
                                                                          
-----------------------|---------------------|-------5------------------| 
-----------------------|---------------------|--------------------------| 
--4b---6----4--2-------|-------------2-------|--7b--------7b-7p-5----4b-| 
--------------------4--|--------4---------4--|--------------------------| 
-----------------------|---------------------|--------------------------| 
-----------------------|---------------------|--------------------------| 
 
 
                                                                    
----------------------|----------------------|--------------------| 
----------------------|--------------5-------|--------------------| 
----6----4r---2-------|---------7-------5----|--------------------| 
-----------------4/---|--7-------------------|--7-----------------| 
----------------------|----------------------|-------7------------| 
----------------------|----------------------|--------------------| 
 
 
                                                                         
-----------------------|-----------------------|-------5--5----7p-5----| 
-------5--5----7p-5----|-------5--5----7p-5----|-------7--7------------| 
-------6--6------------|-------6--6------------|-----------------------| 
-----------------------|-----------------------|--0--------------------| 
--0--------------------|--0--------------------|-----------------------| 
-----------------------|-----------------------|-----------------------| 
 
 
                                                                         
-------5--5----7p-5----|-----------------------|-----------------------| 
-------7--7------------|-------5--5----7p-5----|-------5--5----7p-5----| 
-----------------------|-------6--6------------|-------6--6------------| 
--0--------------------|-----------------------|-----------------------| 
-----------------------|--0--------------------|--0--------------------| 
-----------------------|-----------------------|-----------------------| 
 
 
                                                                         
-----------------------|-----------------------|-----------------------| 
-----------------------|-----------------------|-------5--5----7p-5----| 
-------4--4----6p-4----|-------4--4----6p-4----|-------6--6------------| 
-------6--6------------|-------6--6------------|-----------------------| 
-----------------------|-----------------------|--0--------------------| 
--0--------------------|--0--------------------|-----------------------| 
 
 
                                                                         
-----------------------|-------5--5----7p-5----|-------5--5----7p-5----| 
-------5--5----7p-5----|-------7--7------------|-------7--7------------| 
-------6--6------------|-----------------------|-----------------------| 
-----------------------|--0--------------------|--0--------------------| 
--0--------------------|-----------------------|-----------------------| 
-----------------------|-----------------------|-----------------------| 
 
 
                                                                            
-----------------------|----|-----------------------|---------------------| 
-------5--5----7p-5----|----|--5---------7--7----5--|---------------------| 
-------6--6------------|----|--6---------7--7----6--|---------------------| 
-----------------------|----|-----------------------|---------------------| 
--0--------------------|----|-------0---------------|---------------------| 
-----------------------|----|-----------------------|------0----2----4----| 
 
 
                                                                         
-----------------------|-----------------------|-------5--5----7p-5----| 
-------5--5----7p-5----|-------5--5----7p-5----|-------7--7------------| 
-------6--6------------|-------6--6------------|-----------------------| 
-----------------------|-----------------------|--0--------------------| 
--0--------------------|--0--------------------|-----------------------| 
-----------------------|-----------------------|-----------------------| 
 
 
                                                                         
-------5--5----7p-5----|-----------------------|-----------------------| 
-------7--7------------|-------5--5----7p-5----|-------5--5----7p-5----| 
-----------------------|-------6--6------------|-------6--6------------| 
--0--------------------|-----------------------|-----------------------| 
-----------------------|--0--------------------|--0--------------------| 
-----------------------|-----------------------|-----------------------| 
 
 
                                                                         
-----------------------|-----------------------|-----------------------| 
-----------------------|-----------------------|-------5--5----7p-5----| 
-------4--4----6p-4----|-------4--4----6p-4----|-------6--6------------| 
-------6--6------------|-------6--6------------|-----------------------| 
-----------------------|-----------------------|--0--------------------| 
--0--------------------|--0--------------------|-----------------------| 
 
 
                                                                         
-----------------------|-----------------------|-----------------------| 
-------5--5----7p-5----|--2--------------------|--2------------2-------| 
-------6--6------------|--4-------4----6--4----|--2-------2-------2----| 
-----------------------|--3----3---------------|--4----4---------------| 
--0--------------------|-----------------------|-----------------------| 
-----------------------|-----------------------|-----------------------| 
 
 
                                                                         
-----------------------|-----------------------|-----------------------| 
--4------------4-------|--5------------5-------|--5---------7--7----5--| 
--2-------2-------2----|--7-------7-------7----|--6---------7--7----6--| 
--4----4---------------|--6----6---------------|-----------------------| 
-----------------------|-----------------------|-------0---------------| 
-----------------------|-----------------------|-----------------------| 
 
 
                                                                       
---------------------|-----------------------|-----------------------| 
---------------------|--4------------4-------|--5------------5-------| 
---------------------|--2-------2-------2----|--7-------7-------7----| 
---------------------|--4----4---------------|--6----6---------------| 
---------------------|-----------------------|-----------------------| 
------0----2----4----|-----------------------|-----------------------| 
 
 
                                                                       
-----------------------|---------------------|-----------------------| 
--5---------7--7----5--|---------------------|--4------------4-------| 
--6---------7--7----6--|---------------------|--2-------2-------2----| 
-----------------------|---------------------|--4----4---------------| 
-------0---------------|---------------------|-----------------------| 
-----------------------|------0----2----4----|-----------------------| 
 
 
                                                                       
-----------------------|-----------------------|-----------5--------|| 
--5------------5-------|--5---------7--7----5--|-----------2--------|| 
--7-------7-------7----|--6---------7--7----6--|-----------2--------|| 
--6----6---------------|-----------------------|--------------------|| 
-----------------------|-------0---------------|------0-------------|| 
-----------------------|-----------------------|--------------------|| 
 
 
 
____________________________________       
          
        
o violão de ricky nelson  
                                                                  
E||------------------|------------------|--0----0--0--0--0--0----| 
B||------------------|------------------|--2----2--2--2--2--2----| 
G||------------------|------------------|--2----2--2--2--2--2----| 
D||------------------|------------------|--2----2--2--2--2--2----| 
A||------------------|------------------|--0----0--0--0--0--0----| 
E||------------------|------------------|------------------------| 
 
 
                                                                            
--0----0--0--0--0--0----|--0----0--0--0--0--0----|--0----0--0--0--0--0----| 
--2----2--2--2--2--2----|--2----2--2--2--2--2----|--2----2--2--2--2--2----| 
--2----2--2--2--2--2----|--2----2--2--2--2--2----|--2----2--2--2--2--2----| 
--2----2--2--2--2--2----|--2----2--2--2--2--2----|--2----2--2--2--2--2----| 
--0----0--0--0--0--0----|--0----0--0--0--0--0----|--0----0--0--0--0--0----| 
------------------------|------------------------|------------------------| 
 
 
                                                                            
--0----0--0--0--0--0----|--0----0--0--0--0--0----|--2----2--2--2--2--2----| 
--2----2--2--2--2--2----|--2----2--2--2--2--2----|--3----3--3--3--3--3----| 
--2----2--2--2--2--2----|--2----2--2--2--2--2----|--2----2--2--2--2--2----| 
--2----2--2--2--2--2----|--2----2--2--2--2--2----|--0----0--0--0--0--0----| 
--0----0--0--0--0--0----|--0----0--0--0--0--0----|------------------------| 
------------------------|------------------------|------------------------| 
 
 
                                                                            
--2----2--2--2--2--2----|--0----0--0--0--0--0----|--0----0--0--0--0--0----| 
--3----3--3--3--3--3----|--2----2--2--2--2--2----|--2----2--2--2--2--2----| 
--2----2--2--2--2--2----|--2----2--2--2--2--2----|--2----2--2--2--2--2----| 
--0----0--0--0--0--0----|--2----2--2--2--2--2----|--2----2--2--2--2--2----| 
------------------------|--0----0--0--0--0--0----|--0----0--0--0--0--0----| 
------------------------|------------------------|------------------------| 
 
 
                                                                            
--0----0--0--0--0--0----|--0----0--0--0--0--0----|--0----0--0--0--0--0----| 
--0----0--0--0--0--0----|--0----0--0--0--0--0----|--2----2--2--2--2--2----| 
--1----1--1--1--1--1----|--1----1--1--1--1--1----|--2----2--2--2--2--2----| 
--0----0--0--0--0--0----|--0----0--0--0--0--0----|--2----2--2--2--2--2----| 
--2----2--2--2--2--2----|--2----2--2--2--2--2----|--0----0--0--0--0--0----| 
--0----0--0--0--0--0----|--0----0--0--0--0--0----|------------------------| 
 
 
                                                                            
--0----0--0--0--0--0----|--x----x--x--x--x--x----|--2----2--2--2--2--2----| 
--2----2--2--2--2--2----|--2----2--2--2--2--2----|--2----2--2--2--2--2----| 
--2----2--2--2--2--2----|--4----4--4--4--4--4----|--2----2--2--2--2--2----| 
--2----2--2--2--2--2----|--3----3--3--3--3--3----|--4----4--4--4--4--4----| 
--0----0--0--0--0--0----|--4----4--4--4--4--4----|--4----4--4--4--4--4----| 
------------------------|--x----x--x--x--x--x----|--2----2--2--2--2--2----| 
 
 
                                                                          
--2----2--2--2--2--2----|--0----0--0--0--0--0----|--0----0----2----2----| 
--0----0--0--0--0--0----|--0----0--0--0--0--0----|--2----2----3----3----| 
--2----2--2--2--2--2----|--1----1--1--1--1--1----|--2----2----2----2----| 
--1----1--1--1--1--1----|--0----0--0--0--0--0----|--2----2----0----0----| 
--2----2--2--2--2--2----|--2----2--2--2--2--2----|--0----0--------------| 
------------------------|--0----0--0--0--0--0----|----------------------| 
 
 
                                                                            
--0----0--0--0--0--0----|--0----0--0--0--0--0----|--0----0--0--0--0--0----| 
--2----2--2--2--2--2----|--2----2--2--2--2--2----|--2----2--2--2--2--2----| 
--2----2--2--2--2--2----|--2----2--2--2--2--2----|--2----2--2--2--2--2----| 
--2----2--2--2--2--2----|--2----2--2--2--2--2----|--2----2--2--2--2--2----| 
--0----0--0--0--0--0----|--0----0--0--0--0--0----|--0----0--0--0--0--0----| 
------------------------|------------------------|------------------------| 
 
 
                                                                            
--2----2--2--2--2--2----|--2----2--2--2--2--2----|--0----0--0--0--0--0----| 
--3----3--3--3--3--3----|--3----3--3--3--3--3----|--2----2--2--2--2--2----| 
--2----2--2--2--2--2----|--2----2--2--2--2--2----|--2----2--2--2--2--2----| 
--0----0--0--0--0--0----|--0----0--0--0--0--0----|--2----2--2--2--2--2----| 
------------------------|------------------------|--0----0--0--0--0--0----| 
------------------------|------------------------|------------------------| 
 
 
                                                                            
--0----0--0--0--0--0----|--0----0--0--0--0--0----|--0----0--0--0--0--0----| 
--2----2--2--2--2--2----|--0----0--0--0--0--0----|--0----0--0--0--0--0----| 
--2----2--2--2--2--2----|--1----1--1--1--1--1----|--1----1--1--1--1--1----| 
--2----2--2--2--2--2----|--0----0--0--0--0--0----|--0----0--0--0--0--0----| 
--0----0--0--0--0--0----|--2----2--2--2--2--2----|--2----2--2--2--2--2----| 
------------------------|--0----0--0--0--0--0----|--0----0--0--0--0--0----| 
 
 
                                                                            
--0----0--0--0--0--0----|--0----0--0--0--0--0----|--2----2--2--2--2--2----| 
--2----2--2--2--2--2----|--2----2--2--2--2--2----|--3----3--3--3--3--3----| 
--2----2--2--2--2--2----|--2----2--2--2--2--2----|--2----2--2--2--2--2----| 
--2----2--2--2--2--2----|--2----2--2--2--2--2----|--0----0--0--0--0--0----| 
--0----0--0--0--0--0----|--0----0--0--0--0--0----|------------------------| 
------------------------|------------------------|------------------------| 
 
 
                                                                            
--2----2--2--2--2--2----|--0----0--0--0--0--0----|--0----0--0--0--0--0----| 
--3----3--3--3--3--3----|--2----2--2--2--2--2----|--0----0--0--0--0--0----| 
--2----2--2--2--2--2----|--2----2--2--2--2--2----|--1----1--1--1--1--1----| 
--0----0--0--0--0--0----|--2----2--2--2--2--2----|--0----0--0--0--0--0----| 
------------------------|--0----0--0--0--0--0----|--2----2--2--2--2--2----| 
------------------------|------------------------|--0----0--0--0--0--0----| 
 
 
                                                                          
--0----0----2----2----|--0----0--0--0--0--0----|--0----0--0--0--0--0----| 
--2----2----3----3----|--2----2--2--2--2--2----|--2----2--2--2--2--2----| 
--2----2----2----2----|--2----2--2--2--2--2----|--2----2--2--2--2--2----| 
--2----2----0----0----|--2----2--2--2--2--2----|--2----2--2--2--2--2----| 
--0----0--------------|--0----0--0--0--0--0----|--0----0--0--0--0--0----| 
----------------------|------------------------|------------------------| 
 
 
                                                                            
--0----0--0--0--0--0----|--2----2--2--2--2--2----|--2----2--2--2--2--2----| 
--2----2--2--2--2--2----|--3----3--3--3--3--3----|--3----3--3--3--3--3----| 
--2----2--2--2--2--2----|--2----2--2--2--2--2----|--2----2--2--2--2--2----| 
--2----2--2--2--2--2----|--0----0--0--0--0--0----|--0----0--0--0--0--0----| 
--0----0--0--0--0--0----|------------------------|------------------------| 
------------------------|------------------------|------------------------| 
 
 
                                                                            
--0----0--0--0--0--0----|--0----0--0--0--0--0----|--0----0--0--0--0--0----| 
--2----2--2--2--2--2----|--2----2--2--2--2--2----|--0----0--0--0--0--0----| 
--2----2--2--2--2--2----|--2----2--2--2--2--2----|--1----1--1--1--1--1----| 
--2----2--2--2--2--2----|--2----2--2--2--2--2----|--0----0--0--0--0--0----| 
--0----0--0--0--0--0----|--0----0--0--0--0--0----|--2----2--2--2--2--2----| 
------------------------|------------------------|--0----0--0--0--0--0----| 
 
 
                                                                            
--0----0--0--0--0--0----|--0----0--0--0--0--0----|--0----0--0--0--0--0----| 
--0----0--0--0--0--0----|--2----2--2--2--2--2----|--2----2--2--2--2--2----| 
--1----1--1--1--1--1----|--2----2--2--2--2--2----|--2----2--2--2--2--2----| 
--0----0--0--0--0--0----|--2----2--2--2--2--2----|--2----2--2--2--2--2----| 
--2----2--2--2--2--2----|--0----0--0--0--0--0----|--0----0--0--0--0--0----| 
--0----0--0--0--0--0----|------------------------|------------------------| 
 
 
                                                                            
--x----x--x--x--x--x----|--2----2--2--2--2--2----|--2----2--2--2--2--2----| 
--2----2--2--2--2--2----|--2----2--2--2--2--2----|--0----0--0--0--0--0----| 
--4----4--4--4--4--4----|--2----2--2--2--2--2----|--2----2--2--2--2--2----| 
--3----3--3--3--3--3----|--4----4--4--4--4--4----|--1----1--1--1--1--1----| 
--4----4--4--4--4--4----|--4----4--4--4--4--4----|--2----2--2--2--2--2----| 
--x----x--x--x--x--x----|--2----2--2--2--2--2----|------------------------| 
 
 
                                                                          
--0----0--0--0--0--0----|--0----0----2----2----|--0----0--0--0--0--0----| 
--0----0--0--0--0--0----|--2----2----3----3----|--2----2--2--2--2--2----| 
--1----1--1--1--1--1----|--2----2----2----2----|--2----2--2--2--2--2----| 
--0----0--0--0--0--0----|--2----2----0----0----|--2----2--2--2--2--2----| 
--2----2--2--2--2--2----|--0----0--------------|--0----0--0--0--0--0----| 
--0----0--0--0--0--0----|----------------------|------------------------| 
 
 
                                                                            
--0----0--0--0--0--0----|--0----0--0--0--0--0----|--2----2--2--2--2--2----| 
--2----2--2--2--2--2----|--2----2--2--2--2--2----|--3----3--3--3--3--3----| 
--2----2--2--2--2--2----|--2----2--2--2--2--2----|--2----2--2--2--2--2----| 
--2----2--2--2--2--2----|--2----2--2--2--2--2----|--0----0--0--0--0--0----| 
--0----0--0--0--0--0----|--0----0--0--0--0--0----|------------------------| 
------------------------|------------------------|------------------------| 
 
 
                                                                            
--2----2--2--2--2--2----|--0----0--0--0--0--0----|--0----0--0--0--0--0----| 
--3----3--3--3--3--3----|--2----2--2--2--2--2----|--2----2--2--2--2--2----| 
--2----2--2--2--2--2----|--2----2--2--2--2--2----|--2----2--2--2--2--2----| 
--0----0--0--0--0--0----|--2----2--2--2--2--2----|--2----2--2--2--2--2----| 
------------------------|--0----0--0--0--0--0----|--0----0--0--0--0--0----| 
------------------------|------------------------|------------------------| 
 
 
                                                                            
--0----0--0--0--0--0----|--0----0--0--0--0--0----|--0----0--0--0--0--0----| 
--0----0--0--0--0--0----|--0----0--0--0--0--0----|--2----2--2--2--2--2----| 
--1----1--1--1--1--1----|--1----1--1--1--1--1----|--2----2--2--2--2--2----| 
--0----0--0--0--0--0----|--0----0--0--0--0--0----|--2----2--2--2--2--2----| 
--2----2--2--2--2--2----|--2----2--2--2--2--2----|--0----0--0--0--0--0----| 
--0----0--0--0--0--0----|--0----0--0--0--0--0----|------------------------| 
 
 
                                                                            
--0----0--0--0--0--0----|--x----x--x--x--x--x----|--2----2--2--2--2--2----| 
--2----2--2--2--2--2----|--2----2--2--2--2--2----|--2----2--2--2--2--2----| 
--2----2--2--2--2--2----|--4----4--4--4--4--4----|--2----2--2--2--2--2----| 
--2----2--2--2--2--2----|--3----3--3--3--3--3----|--4----4--4--4--4--4----| 
--0----0--0--0--0--0----|--4----4--4--4--4--4----|--4----4--4--4--4--4----| 
------------------------|--x----x--x--x--x--x----|--2----2--2--2--2--2----| 
 
 
                                                                          
--2----2--2--2--2--2----|--0----0--0--0--0--0----|--0----0----2----2----| 
--0----0--0--0--0--0----|--0----0--0--0--0--0----|--2----2----3----3----| 
--2----2--2--2--2--2----|--1----1--1--1--1--1----|--2----2----2----2----| 
--1----1--1--1--1--1----|--0----0--0--0--0--0----|--2----2----0----0----| 
--2----2--2--2--2--2----|--2----2--2--2--2--2----|--0----0--------------| 
------------------------|--0----0--0--0--0--0----|----------------------| 
 
 
                                                                            
--0----0--0--0--0--0----|--0----0--0--0--0--0----|--0----0--0--0--0--0----| 
--2----2--2--2--2--2----|--2----2--2--2--2--2----|--2----2--2--2--2--2----| 
--2----2--2--2--2--2----|--2----2--2--2--2--2----|--2----2--2--2--2--2----| 
--2----2--2--2--2--2----|--2----2--2--2--2--2----|--2----2--2--2--2--2----| 
--0----0--0--0--0--0----|--0----0--0--0--0--0----|--0----0--0--0--0--0----| 
------------------------|------------------------|------------------------| 
 
 
                                                                            
--2----2--2--2--2--2----|--2----2--2--2--2--2----|--0----0--0--0--0--0----| 
--3----3--3--3--3--3----|--3----3--3--3--3--3----|--2----2--2--2--2--2----| 
--2----2--2--2--2--2----|--2----2--2--2--2--2----|--2----2--2--2--2--2----| 
--0----0--0--0--0--0----|--0----0--0--0--0--0----|--2----2--2--2--2--2----| 
------------------------|------------------------|--0----0--0--0--0--0----| 
------------------------|------------------------|------------------------| 
 
 
                                                                            
--0----0--0--0--0--0----|--0----0--0--0--0--0----|--0----0--0--0--0--0----| 
--2----2--2--2--2--2----|--0----0--0--0--0--0----|--0----0--0--0--0--0----| 
--2----2--2--2--2--2----|--1----1--1--1--1--1----|--1----1--1--1--1--1----| 
--2----2--2--2--2--2----|--0----0--0--0--0--0----|--0----0--0--0--0--0----| 
--0----0--0--0--0--0----|--2----2--2--2--2--2----|--2----2--2--2--2--2----| 
------------------------|--0----0--0--0--0--0----|--0----0--0--0--0--0----| 
 
 
                                                                            
--0----0--0--0--0--0----|--0----0--0--0--0--0----|--2----2--2--2--2--2----| 
--2----2--2--2--2--2----|--2----2--2--2--2--2----|--3----3--3--3--3--3----| 
--2----2--2--2--2--2----|--2----2--2--2--2--2----|--2----2--2--2--2--2----| 
--2----2--2--2--2--2----|--2----2--2--2--2--2----|--0----0--0--0--0--0----| 
--0----0--0--0--0--0----|--0----0--0--0--0--0----|------------------------| 
------------------------|------------------------|------------------------| 
 
 
                                                                            
--2----2--2--2--2--2----|--0----0--0--0--0--0----|--0----0--0--0--0--0----| 
--3----3--3--3--3--3----|--2----2--2--2--2--2----|--0----0--0--0--0--0----| 
--2----2--2--2--2--2----|--2----2--2--2--2--2----|--1----1--1--1--1--1----| 
--0----0--0--0--0--0----|--2----2--2--2--2--2----|--0----0--0--0--0--0----| 
------------------------|--0----0--0--0--0--0----|--2----2--2--2--2--2----| 
------------------------|------------------------|--0----0--0--0--0--0----| 
 
 
                                                                          
--0----0----2----2----|--0----0--0--0--0--0----|--0----0--0--0--0--0----| 
--2----2----3----3----|--2----2--2--2--2--2----|--2----2--2--2--2--2----| 
--2----2----2----2----|--2----2--2--2--2--2----|--2----2--2--2--2--2----| 
--2----2----0----0----|--2----2--2--2--2--2----|--2----2--2--2--2--2----| 
--0----0--------------|--0----0--0--0--0--0----|--0----0--0--0--0--0----| 
----------------------|------------------------|------------------------| 
 
 
                                                                            
--0----0--0--0--0--0----|--2----2--2--2--2--2----|--2----2--2--2--2--2----| 
--2----2--2--2--2--2----|--3----3--3--3--3--3----|--3----3--3--3--3--3----| 
--2----2--2--2--2--2----|--2----2--2--2--2--2----|--2----2--2--2--2--2----| 
--2----2--2--2--2--2----|--0----0--0--0--0--0----|--0----0--0--0--0--0----| 
--0----0--0--0--0--0----|------------------------|------------------------| 
------------------------|------------------------|------------------------| 
 
 
                                                                            
--0----0--0--0--0--0----|--0----0--0--0--0--0----|--0----0--0--0--0--0----| 
--2----2--2--2--2--2----|--2----2--2--2--2--2----|--0----0--0--0--0--0----| 
--2----2--2--2--2--2----|--2----2--2--2--2--2----|--1----1--1--1--1--1----| 
--2----2--2--2--2--2----|--2----2--2--2--2--2----|--0----0--0--0--0--0----| 
--0----0--0--0--0--0----|--0----0--0--0--0--0----|--2----2--2--2--2--2----| 
------------------------|------------------------|--0----0--0--0--0--0----| 
 
 
                                                                            
--0----0--0--0--0--0----|--0----0--0--0--0--0----|--0----0--0--0--0--0----| 
--0----0--0--0--0--0----|--2----2--2--2--2--2----|--2----2--2--2--2--2----| 
--1----1--1--1--1--1----|--2----2--2--2--2--2----|--2----2--2--2--2--2----| 
--0----0--0--0--0--0----|--2----2--2--2--2--2----|--2----2--2--2--2--2----| 
--2----2--2--2--2--2----|--0----0--0--0--0--0----|--0----0--0--0--0--0----| 
--0----0--0--0--0--0----|------------------------|------------------------| 
 
 
                                                                            
--x----x--x--x--x--x----|--2----2--2--2--2--2----|--2----2--2--2--2--2----| 
--2----2--2--2--2--2----|--2----2--2--2--2--2----|--0----0--0--0--0--0----| 
--4----4--4--4--4--4----|--2----2--2--2--2--2----|--2----2--2--2--2--2----| 
--3----3--3--3--3--3----|--4----4--4--4--4--4----|--1----1--1--1--1--1----| 
--4----4--4--4--4--4----|--4----4--4--4--4--4----|--2----2--2--2--2--2----| 
--x----x--x--x--x--x----|--2----2--2--2--2--2----|------------------------| 
 
 
                                                                          
--0----0--0--0--0--0----|--0----0----2----2----|--0----0--0--0--0--0----| 
--0----0--0--0--0--0----|--2----2----3----3----|--2----2--2--2--2--2----| 
--1----1--1--1--1--1----|--2----2----2----2----|--2----2--2--2--2--2----| 
--0----0--0--0--0--0----|--2----2----0----0----|--2----2--2--2--2--2----| 
--2----2--2--2--2--2----|--0----0--------------|--0----0--0--0--0--0----| 
--0----0--0--0--0--0----|----------------------|------------------------| 
 
 
                                                                          
--2----2--2--2--2--2----|--0----0--0--0--0--0----|--0----0----2----2----| 
--0----0--0--0--0--0----|--0----0--0--0--0--0----|--2----2----3----3----| 
--2----2--2--2--2--2----|--1----1--1--1--1--1----|--2----2----2----2----| 
--1----1--1--1--1--1----|--0----0--0--0--0--0----|--2----2----0----0----| 
--2----2--2--2--2--2----|--2----2--2--2--2--2----|--0----0--------------| 
------------------------|--0----0--0--0--0--0----|----------------------| 
 
 
                                                                            
--0----0--0--0--0--0----|--2----2--2--2--2--2----|--0----0--0--0--0--0----| 
--2----2--2--2--2--2----|--0----0--0--0--0--0----|--0----0--0--0--0--0----| 
--2----2--2--2--2--2----|--2----2--2--2--2--2----|--1----1--1--1--1--1----| 
--2----2--2--2--2--2----|--1----1--1--1--1--1----|--0----0--0--0--0--0----| 
--0----0--0--0--0--0----|--2----2--2--2--2--2----|--2----2--2--2--2--2----| 
------------------------|------------------------|--0----0--0--0--0--0----| 
 
 
                                               
--0----0----2----2----|--0----0----0--------|| 
--2----2----3----3----|--2----2----2--------|| 
--2----2----2----2----|--2----2----2--------|| 
--2----2----0----0----|--2----2----2--------|| 
--0----0--------------|--0----0----0--------|| 
----------------------|---------------------|| 
 
 
_______________________________________________________ 
Contribuição: Rafael Miranda([email protected])