REM

home > REM

Losing my religion Tab

REM

Difficulty: BeginnerBeginner

by filipe%5Fpereira

tuner correct add songbook print version text version save to e-mail
chordsukulelecavacokeyboardtabbassdrumsharmonicsflute Guitar Pro
chords

Losing my religion

Year: 1994 - Album: In Time: The Best of R.E.M. 1988-2003

(Bill Berry/ Michael Stipe/ Mike Mills/ Peter Buck)

  		 
e-10-12-10----| 
b----------10-| 
g-------------| 
D-------------| 
A-------------| 
E-------------| 
 
{Interlude:} 
 
e-----12--12--12--10--10--10--10--10--8--8--8--5--5--5--5--5-----------------| 
b----------------------------------------------------------------------------| 
g----------------------------------------------------------------------------| 
D----------------------------------------------------------------------------| 
A----------------------------------------------------------------------------| 
E----------------------------------------------------------------------------| 
 
(Solo Final) 
e-12-12-12-12-12-12-12-12-|-12-10-------10-------------| 
b-------------------------|-------13-10----13-10-13-10-| 
g-------------------------|----------------------------| 
D-------------------------|----------------------------| 
A-------------------------|----------------------------| 
E-------------------------|----------------------------| 
(tocar a primeira parte 7 vezes) 

	  

Search Paypal
auto scroll beats size up size down change color hide chords drawings
tab show chords e-chords YouTube Clip e-chords hide all tabs e-chords go to top tab