Rammstein

home > Rammstein

Rein Raus Tab

Rammstein

Difficulty: ExpertExpert

tuner correct add songbook print version text version save to e-mail
chordsukulelecavacokeyboardtabbassdrumsharmonicsflute Guitar Pro
chords

Rein Raus

  		Intro Pickup Notes  Main Riff                                                         
E||--------------||---------------------------|----------------------------|
B||--------------||---------------------------|----------------------------|
G||--------------||*--------------------------|----------------------------|
D||--0--0--0--0--||*--2--------1--------2--4--|--2--------1----------2--4--|
A||--0--0--0--0--||---2--------1--------2--4--|--2--------1----------2--4--|
D||--0--0--0--0--||---2--0--0--1--0--0--2--4--|--2--0--0--1--0-0-0-0-2--4--|


                                                        
--------------------------|---------------------------||
--------------------------|---------------------------||
--------------------------|--------------------------*||
--2--------1--------2--4--|--2--------4--4--4--4-----*||
--2--------1--------2--4--|--2--------4--4--4--4------||
--2--0--0--1--0--0--2--4--|--2--0--0--4--4--4--4--0-0-||
	  

Search Paypal
auto scroll beats size up size down change color hide chords drawings
tab show chords e-chords YouTube Clip e-chords hide all tabs e-chords go to top tab