Rammstein

Herzeleid Tab

Rammstein

Difficulty: ExpertExpert

by Du+Hast

tuner correct add songbook print version text version save to e-mail
chordsukulelecavacokeyboardtabbassdrumsharmonicsflute Guitar Pro
close

there isn't a video lesson for this song

chords

Herzeleid

  		Main Riff 
e|----------------| 
B|----------------| 
G|----------------| 
D|----------------| 
A|-4-4-4--4-4-4-4-| 
E|-2-3-2--2-3-3-2-| 
   
 
Chorus 
|-------------------------| 
|-------------------------| 
|-------------------------| 
|-------------------------| 
|-2-4--2-4--4-5-5-4-------| 
|-0-2--0-2--2-3-3-2-2-2-2-| 
       
 
Played when Till screams Herzeleid 
 
|----------------| 
|----------------|x2 
|-4-4-4--4-4-4-4-| 
|-2-3-2--2-3-3-2-| 
|----------------| 
 
 
|----------------| 
|----------------|x2 
|-3-3-3--3-3-3-3-| 
|-1-2-1--1-2-2-1-| 
|----------------| 
 
 
Played During After Till screams, during the keyboard part. 
|---------------------------------| 
|---------------------------------| 
|---------------------------------| 
|---------------------------------| 
|---------------------------------| 
|-0h2-2-2-3p2-0h2-0h2-2-2-2-2-2-2-| 
      pm.}            pm.........} 
|---------------------------------| 
|---------------------------------| 
|---------------------------------| 
|---------------------------------| 
|---------------------------------| 
|-3h5-5-5-6p5-3h5-3h5-5-5-5-5-5-5-| 
 
 
 
 
 

	  

auto scroll beats size up size down change color hide chords drawings
tab show chords e-chords YouTube Clip e-chords hide all tabs e-chords go to top tab

share with facebook

Search Paypal