Rammstein

home > Rammstein

Bestrafe Mich Tab

Rammstein

Difficulty: BeginnerBeginner

tuner correct add songbook print version text version save to e-mail
chordsukulelecavacokeyboardtabbassdrummharmonicsflute Guitar Pro
chords

Bestrafe Mich

  		 Símbolos usados nessa tablatura:

Notes:
w - whole note
h - half note
q - quarter note
e - eighth note
s - sixteenth note

Rests:
W - whole rest
H - Half rest
Q - quarter rest
E - eighth rest
S - sixteenth rest

Articulations:
^ - hammer on/pull off
pm - palm muting
/ - slide up
x - fret hand muting

  intro:
E|-----|---------|-----|--------------|-----|-----|
B|-----|---------|-----|--------------|-----|-----|
G|-----|---------|-----|--------------|-----|-----|
D|--4--|--4---4--|--5--|--/9-----x-x--|--5--|--4--|
A|--2--|--2---2--|--3--|--/7-----x-x--|--3--|--2--|
D|-----|---------|-----|--------------|-----|-----|
    w     h+q q     w      h+q+e s s

  cool riff:
E|-----------------------|----------------------|
B|-----------------------|----------------------|
G|-----------------------|----------------------|
D|-----------------------|----------------------|
A|--3-3-2-2-2-3-3-2-2-2--|--3-3-2-2-2-/5-2-2-2--|
D|--3-3-2-2-2-3-3-2-2-2--|--3-3-2-2-2-/5-2-2-2--|
    s s e e e s s e e e     s s e e e  e e e e
    pm-----------------     pm-------    pm--- 

E|-----------------------|-----------------------------|
B|-----------------------|-----------------------------|
G|-----------------------|-----------------------------|
D|-----------------------|------------------------*-*--|
A|--3-3-2-2-2-3-3-2-2-2--|--3-3-2-2-2-5-4-2-2-5-4-2-2--|
D|--3-3-2-2-2-3-3-2-2-2--|--3-3-2-2-2-5-4-2-2-5-4-2-2--|
    s s e e e s s e e e     s s e e e s s s s s s s s
    pm-----------------     pm----------------------- 
                           
  variation in intro:
E|-------------------|-------------------------|
B|-------------------|-------------------------|
G|-------------------|-------------------------|
D|-------------------|-------------------------|
A|--2-2---2---2---2--|---2---2--5-4-2-2-5-4-2--|
D|--2-2---2---2---2--|---2---2--5-4-2-2-5-4-2--|
    e e E e E e E e    E s E e  s s s s s s e
    pm                          pm--------- 

  verses:
E|-------------------|-------------------|
B|-------------------|-------------------|
G|-------------------|-------------------|
D|-------------------|-------------------|
A|--2-2-2-2-2-2-2-2--|--2-2-2-2-2-2-1-0--|
D|--2-2-2-2-2-2-2-2--|--2-2-2-2-2-2-1-0--|
    e e e e e e e e     e e e e e e e e
    pm--------------------------------- 

  end of verse 2:
E|------------|
B|------------|
G|------------|
D|------------|
A|--2-2-2-----|
D|--2-2-2-----|
    e e e H+E
    pm--- 

  interlude do teclado:
E|-14-------14-------14-----|--15-------15-------15-----|---------------------------|
B|----12-------12-----------|-----13-------13-----------|--12-------12-------12-----|
G|-------11-------11----11--|--------12-------12----12--|-----12-------12-------12--|
D|--------------------------|---------------------------|--------14-------14--------|
A|--------------------------|---------------------------|---------------------------|
D|--------------------------|---------------------------|---------------------------|
   e  e  e  e  e  e  e  e      e  e  e  e  e  e  e  e      e  e  e  e  e  e  e  e
*Arranjo para guitarra:

e|---------------------------|---------------------------|----------14----------|
B|--15-------15-------15-12--|--13-------13-------13-10--|-------12----12-------|
G|-----14-------14-----------|-----12-------12-----------|----11----------11----|
D|--------12-------12--------|--------11-------11--------|--9----------------9--|
A|---------------------------|---------------------------|----------------------|
D|---------------------------|---------------------------|----------------------|
    e  e  e  e  e  e  e  e      e  e  e  e  e  e  e  e      e e  e  e  e  e  q

  last chorus:
E|-----------------------|-----------------------|-----------------------|
B|-----------------------|-----------------------|-----------------------|
G|.----------------------|-----------------------|-----------------------|
D|.-4-4-4-4-4-4-4-4-4-4--|--4-4-4-4-4-4-4-4-4-4--|--5-5-5-5-5-5-5-5-5-5--|
A|--2-2-2-2-2-2-2-2-2-2--|--2-2-2-2-2-2-2-2-2-2--|--3-3-3-3-3-3-3-3-3-3--|
D|-----------------------|-----------------------|-----------------------|
    s s e e e s s e e e     s s e e e s s e e e     s s e e e s s e e e
    pm----------------------------------------------------------------- 

E|-----------------------|-----------------------|-----------------------|
B|-----------------------|-----------------------|-----------------------|
G|-----------------------|-----------------------|----------------------.|
D|-----------------------|--5-5-5-5-5-5-5-5-5-5--|--4-4-4-4-4-4-4-4-4-4-.|
A|--2-2-2-2-2-2-2-2-2-2--|--3-3-3-3-3-3-3-3-3-3--|--2-2-2-2-2-2-2-2-2-2--|
E|--2-2-2-2-2-2-2-2-2-2--|-----------------------|-----------------------|
    s s e e e s s e e e     s s e e e s s e e e     s s e e e s s e e e
    pm----------------------------------------------------------------- 

  end:
E|---------------------------|----------|
B|---------------------------|----------|
G|---------------------------|----------|
D|---------------------------|----------|
A|--2-2-2-2-5-4-2-2-5-4-2-2--|--2-------|
D|--2-2-2-2-5-4-2-2-5-4-2-2--|--2-------|
    e e e e s s s s s s s s     e H+Q+E
    pm---------------------

	  

Search Paypal
auto scroll beats size up size down change color hide chords drawings
tab show chords e-chords YouTube Clip e-chords hide all tabs e-chords go to top tab